  0
SECTION
  2
HEADER
  9
$ACADVER
  1
AC1006
  9
$EXTMIN
 10
-3.110433
 20
-4.256299
  9
$EXTMAX
 10
3.353008
 20
5.135197
  9
$LTSCALE
 40
0.000394
  9
$PDMODE
 70
    35
  9
$PDSIZE
 40
0.000315
  0
ENDSEC
  0
SECTION
  2
TABLES
  0
TABLE
  2
LTYPE
 70
     9
  0
LTYPE
  2
CONTINUOUS
 70
    64
  3
Solid line
 72
    65
 73
     0
 40
0.000000
  0
LTYPE
  2
DASHED
 70
    64
  3
__ __ __ __ __ __ __ __ __ __ __ __ __ __ __
 72
    65
 73
     2
 40
0.000003
 49
0.000002
 49
-0.000001
  0
LTYPE
  2
HIDDEN
 70
    64
  3
 _ _ _ _ _ _ _ _ _ _ _ _ _ _ _ _ _ _ _ _ _ _
 72
    65
 73
     2
 40
0.000001
 49
0.000001
 49
-0.000000
  0
LTYPE
  2
CENTER
 70
    64
  3
____ _ ____ _ ____ _ ____ _ ____ _ ____ _ ____
 72
    65
 73
     4
 40
0.000008
 49
0.000005
 49
-0.000001
 49
0.000001
 49
-0.000001
  0
LTYPE
  2
PHANTOM
 70
    64
  3
_____ _ _ _____ _ _ _____ _ _ _____ _ _ ____
 72
    65
 73
     6
 40
0.000010
 49
0.000005
 49
-0.000001
 49
0.000001
 49
-0.000001
 49
0.000001
 49
-0.000001
  0
LTYPE
  2
DOT
 70
    64
  3
...............................................
 72
    65
 73
     2
 40
0.000001
 49
0.000000
 49
-0.000001
  0
LTYPE
  2
DASHDOT
 70
    64
  3
__ . __ . __ . __ . __ . __ . __ . __ . __ . __
 72
    65
 73
     4
 40
0.000004
 49
0.000002
 49
-0.000001
 49
0.000000
 49
-0.000001
  0
LTYPE
  2
BORDER
 70
    64
  3
__ __ . __ __ . __ __ . __ __ . __ __ . __ __
 72
    65
 73
     6
 40
0.000007
 49
0.000002
 49
-0.000001
 49
0.000002
 49
-0.000001
 49
0.000000
 49
-0.000001
  0
LTYPE
  2
DIVIDE
 70
    64
  3
__ . . __ . . __ . . __ . . __ . . __ . . __
 72
    65
 73
     6
 40
0.000005
 49
0.000002
 49
-0.000001
 49
0.000000
 49
-0.000001
 49
0.000000
 49
-0.000001
  0
LTYPE
  2
DOTDOT
 70
    64
  3
 . .  . .  . .  . .  . .  . . 
 72
    65
 73
     5
 40
0.000002
 49
-0.000001
 49
0.000000
 49
-0.000001
 49
0.000000
 49
-0.000001
  0
ENDTAB
  0
TABLE
  2
STYLE
 70
     4
  0
STYLE
 70
     0
  2
SN0
 40
0.000000
 41
0.000004
 50
0.000000
 71
     0
 42
0.000000
  3
ROMAND
  0
STYLE
 70
    68
  2
SV0
 40
0.000000
 41
0.000004
 50
0.000000
 71
     0
 42
0.000000
  3
ROMAND
  0
STYLE
 70
     0
  2
SN1
 40
0.000000
 41
0.000004
 50
0.000000
 71
     0
 42
0.000000
  3
SCRIPTS
  0
STYLE
 70
    68
  2
SV1
 40
0.000000
 41
0.000004
 50
0.000000
 71
     0
 42
0.000000
  3
SCRIPTS
  0
ENDTAB
  0
TABLE
  2
LAYER
 70
     4
  0
LAYER
  2
FOREGROUND
 70
    64
 62
     7
  6
CONTINUOUS
  0
LAYER
  2
BACKGROUND
 70
    65
 62
    -7
  6
CONTINUOUS
  0
LAYER
  2
LAYER_1
 70
    64
 62
     7
  6
CONTINUOUS
  0
LAYER
  2
INTERNET_LAYER
 70
    64
 62
     7
  6
CONTINUOUS
  0
ENDTAB
  0
ENDSEC
  0
SECTION
  2
ENTITIES
  0
POLYLINE
  8
LAYER_1
 62
    39
  6
CONTINUOUS
 66
     1
 40
0.027780
 41
0.027780
  0
VERTEX
  8
LAYER_1
 62
    39
  6
CONTINUOUS
 10
3.279252
 20
-0.720425
  0
VERTEX
  8
LAYER_1
 62
    39
  6
CONTINUOUS
 10
3.233975
 20
-0.689081
  0
VERTEX
  8
LAYER_1
 62
    39
  6
CONTINUOUS
 10
3.188657
 20
-0.657378
  0
VERTEX
  8
LAYER_1
 62
    39
  6
CONTINUOUS
 10
3.143305
 20
-0.625322
  0
VERTEX
  8
LAYER_1
 62
    39
  6
CONTINUOUS
 10
3.097925
 20
-0.592916
  0
VERTEX
  8
LAYER_1
 62
    39
  6
CONTINUOUS
 10
3.052525
 20
-0.560167
  0
VERTEX
  8
LAYER_1
 62
    39
  6
CONTINUOUS
 10
3.007111
 20
-0.527080
  0
VERTEX
  8
LAYER_1
 62
    39
  6
CONTINUOUS
 10
2.961690
 20
-0.493658
  0
VERTEX
  8
LAYER_1
 62
    39
  6
CONTINUOUS
 10
2.916269
 20
-0.459908
  0
VERTEX
  8
LAYER_1
 62
    39
  6
CONTINUOUS
 10
2.870855
 20
-0.425835
  0
VERTEX
  8
LAYER_1
 62
    39
  6
CONTINUOUS
 10
2.825455
 20
-0.391443
  0
VERTEX
  8
LAYER_1
 62
    39
  6
CONTINUOUS
 10
2.780076
 20
-0.356737
  0
VERTEX
  8
LAYER_1
 62
    39
  6
CONTINUOUS
 10
2.734724
 20
-0.321723
  0
VERTEX
  8
LAYER_1
 62
    39
  6
CONTINUOUS
 10
2.689407
 20
-0.286406
  0
VERTEX
  8
LAYER_1
 62
    39
  6
CONTINUOUS
 10
2.644131
 20
-0.250790
  0
VERTEX
  8
LAYER_1
 62
    39
  6
CONTINUOUS
 10
2.598902
 20
-0.214881
  0
VERTEX
  8
LAYER_1
 62
    39
  6
CONTINUOUS
 10
2.553729
 20
-0.178683
  0
VERTEX
  8
LAYER_1
 62
    39
  6
CONTINUOUS
 10
2.508618
 20
-0.142202
  0
VERTEX
  8
LAYER_1
 62
    39
  6
CONTINUOUS
 10
2.463576
 20
-0.105443
  0
VERTEX
  8
LAYER_1
 62
    39
  6
CONTINUOUS
 10
2.418609
 20
-0.068411
  0
VERTEX
  8
LAYER_1
 62
    39
  6
CONTINUOUS
 10
2.373724
 20
-0.031110
  0
VERTEX
  8
LAYER_1
 62
    39
  6
CONTINUOUS
 10
2.328929
 20
0.006454
  0
VERTEX
  8
LAYER_1
 62
    39
  6
CONTINUOUS
 10
2.284230
 20
0.044275
  0
VERTEX
  8
LAYER_1
 62
    39
  6
CONTINUOUS
 10
2.239634
 20
0.082350
  0
VERTEX
  8
LAYER_1
 62
    39
  6
CONTINUOUS
 10
2.195148
 20
0.120673
  0
VERTEX
  8
LAYER_1
 62
    39
  6
CONTINUOUS
 10
2.150779
 20
0.159239
  0
VERTEX
  8
LAYER_1
 62
    39
  6
CONTINUOUS
 10
2.106534
 20
0.198044
  0
VERTEX
  8
LAYER_1
 62
    39
  6
CONTINUOUS
 10
2.062419
 20
0.237081
  0
VERTEX
  8
LAYER_1
 62
    39
  6
CONTINUOUS
 10
2.018441
 20
0.276346
  0
VERTEX
  8
LAYER_1
 62
    39
  6
CONTINUOUS
 10
1.974608
 20
0.315833
  0
VERTEX
  8
LAYER_1
 62
    39
  6
CONTINUOUS
 10
1.930926
 20
0.355539
  0
VERTEX
  8
LAYER_1
 62
    39
  6
CONTINUOUS
 10
1.887402
 20
0.395458
  0
VERTEX
  8
LAYER_1
 62
    39
  6
CONTINUOUS
 10
1.844042
 20
0.435584
  0
VERTEX
  8
LAYER_1
 62
    39
  6
CONTINUOUS
 10
1.800855
 20
0.475913
  0
VERTEX
  8
LAYER_1
 62
    39
  6
CONTINUOUS
 10
1.757846
 20
0.516440
  0
VERTEX
  8
LAYER_1
 62
    39
  6
CONTINUOUS
 10
1.715022
 20
0.557160
  0
VERTEX
  8
LAYER_1
 62
    39
  6
CONTINUOUS
 10
1.672391
 20
0.598067
  0
VERTEX
  8
LAYER_1
 62
    39
  6
CONTINUOUS
 10
1.629959
 20
0.639157
  0
VERTEX
  8
LAYER_1
 62
    39
  6
CONTINUOUS
 10
1.587733
 20
0.680424
  0
VERTEX
  8
LAYER_1
 62
    39
  6
CONTINUOUS
 10
1.545720
 20
0.721864
  0
VERTEX
  8
LAYER_1
 62
    39
  6
CONTINUOUS
 10
1.503927
 20
0.763472
  0
VERTEX
  8
LAYER_1
 62
    39
  6
CONTINUOUS
 10
1.462360
 20
0.805242
  0
VERTEX
  8
LAYER_1
 62
    39
  6
CONTINUOUS
 10
1.421027
 20
0.847169
  0
VERTEX
  8
LAYER_1
 62
    39
  6
CONTINUOUS
 10
1.379935
 20
0.889249
  0
VERTEX
  8
LAYER_1
 62
    39
  6
CONTINUOUS
 10
1.339089
 20
0.931477
  0
VERTEX
  8
LAYER_1
 62
    39
  6
CONTINUOUS
 10
1.298498
 20
0.973846
  0
VERTEX
  8
LAYER_1
 62
    39
  6
CONTINUOUS
 10
1.258168
 20
1.016353
  0
VERTEX
  8
LAYER_1
 62
    39
  6
CONTINUOUS
 10
1.218106
 20
1.058993
  0
VERTEX
  8
LAYER_1
 62
    39
  6
CONTINUOUS
 10
1.178318
 20
1.101759
  0
VERTEX
  8
LAYER_1
 62
    39
  6
CONTINUOUS
 10
1.138812
 20
1.144648
  0
VERTEX
  8
LAYER_1
 62
    39
  6
CONTINUOUS
 10
1.099595
 20
1.187654
  0
VERTEX
  8
LAYER_1
 62
    39
  6
CONTINUOUS
 10
1.060673
 20
1.230773
  0
VERTEX
  8
LAYER_1
 62
    39
  6
CONTINUOUS
 10
1.022053
 20
1.273998
  0
VERTEX
  8
LAYER_1
 62
    39
  6
CONTINUOUS
 10
0.983742
 20
1.317325
  0
VERTEX
  8
LAYER_1
 62
    39
  6
CONTINUOUS
 10
0.945747
 20
1.360750
  0
VERTEX
  8
LAYER_1
 62
    39
  6
CONTINUOUS
 10
0.908075
 20
1.404267
  0
VERTEX
  8
LAYER_1
 62
    39
  6
CONTINUOUS
 10
0.870732
 20
1.447870
  0
VERTEX
  8
LAYER_1
 62
    39
  6
CONTINUOUS
 10
0.833727
 20
1.491556
  0
VERTEX
  8
LAYER_1
 62
    39
  6
CONTINUOUS
 10
0.797064
 20
1.535318
  0
VERTEX
  8
LAYER_1
 62
    39
  6
CONTINUOUS
 10
0.760752
 20
1.579152
  0
VERTEX
  8
LAYER_1
 62
    39
  6
CONTINUOUS
 10
0.724797
 20
1.623054
  0
VERTEX
  8
LAYER_1
 62
    39
  6
CONTINUOUS
 10
0.689206
 20
1.667017
  0
VERTEX
  8
LAYER_1
 62
    39
  6
CONTINUOUS
 10
0.653986
 20
1.711037
  0
VERTEX
  8
LAYER_1
 62
    39
  6
CONTINUOUS
 10
0.619143
 20
1.755108
  0
VERTEX
  8
LAYER_1
 62
    39
  6
CONTINUOUS
 10
0.584685
 20
1.799227
  0
VERTEX
  8
LAYER_1
 62
    39
  6
CONTINUOUS
 10
0.550619
 20
1.843387
  0
VERTEX
  8
LAYER_1
 62
    39
  6
CONTINUOUS
 10
0.516951
 20
1.887583
  0
VERTEX
  8
LAYER_1
 62
    39
  6
CONTINUOUS
 10
0.483688
 20
1.931812
  0
VERTEX
  8
LAYER_1
 62
    39
  6
CONTINUOUS
 10
0.450838
 20
1.976067
  0
VERTEX
  8
LAYER_1
 62
    39
  6
CONTINUOUS
 10
0.418406
 20
2.020343
  0
VERTEX
  8
LAYER_1
 62
    39
  6
CONTINUOUS
 10
0.386400
 20
2.064636
  0
VERTEX
  8
LAYER_1
 62
    39
  6
CONTINUOUS
 10
0.354827
 20
2.108941
  0
VERTEX
  8
LAYER_1
 62
    39
  6
CONTINUOUS
 10
0.354827
 20
2.108941
  0
VERTEX
  8
LAYER_1
 62
    39
  6
CONTINUOUS
 10
0.228697
 20
2.065736
  0
VERTEX
  8
LAYER_1
 62
    39
  6
CONTINUOUS
 10
0.189507
 20
2.026668
  0
VERTEX
  8
LAYER_1
 62
    39
  6
CONTINUOUS
 10
0.149966
 20
1.987700
  0
VERTEX
  8
LAYER_1
 62
    39
  6
CONTINUOUS
 10
0.110078
 20
1.948833
  0
VERTEX
  8
LAYER_1
 62
    39
  6
CONTINUOUS
 10
0.069848
 20
1.910074
  0
VERTEX
  8
LAYER_1
 62
    39
  6
CONTINUOUS
 10
0.029282
 20
1.871426
  0
VERTEX
  8
LAYER_1
 62
    39
  6
CONTINUOUS
 10
-0.011617
 20
1.832893
  0
VERTEX
  8
LAYER_1
 62
    39
  6
CONTINUOUS
 10
-0.052842
 20
1.794480
  0
VERTEX
  8
LAYER_1
 62
    39
  6
CONTINUOUS
 10
-0.094389
 20
1.756189
  0
VERTEX
  8
LAYER_1
 62
    39
  6
CONTINUOUS
 10
-0.136253
 20
1.718027
  0
VERTEX
  8
LAYER_1
 62
    39
  6
CONTINUOUS
 10
-0.178429
 20
1.679995
  0
VERTEX
  8
LAYER_1
 62
    39
  6
CONTINUOUS
 10
-0.220912
 20
1.642100
  0
VERTEX
  8
LAYER_1
 62
    39
  6
CONTINUOUS
 10
-0.263697
 20
1.604344
  0
VERTEX
  8
LAYER_1
 62
    39
  6
CONTINUOUS
 10
-0.306779
 20
1.566732
  0
VERTEX
  8
LAYER_1
 62
    39
  6
CONTINUOUS
 10
-0.350153
 20
1.529269
  0
VERTEX
  8
LAYER_1
 62
    39
  6
CONTINUOUS
 10
-0.393813
 20
1.491957
  0
VERTEX
  8
LAYER_1
 62
    39
  6
CONTINUOUS
 10
-0.437756
 20
1.454801
  0
VERTEX
  8
LAYER_1
 62
    39
  6
CONTINUOUS
 10
-0.481976
 20
1.417806
  0
VERTEX
  8
LAYER_1
 62
    39
  6
CONTINUOUS
 10
-0.526468
 20
1.380975
  0
VERTEX
  8
LAYER_1
 62
    39
  6
CONTINUOUS
 10
-0.571226
 20
1.344313
  0
VERTEX
  8
LAYER_1
 62
    39
  6
CONTINUOUS
 10
-0.616247
 20
1.307823
  0
VERTEX
  8
LAYER_1
 62
    39
  6
CONTINUOUS
 10
-0.661525
 20
1.271510
  0
VERTEX
  8
LAYER_1
 62
    39
  6
CONTINUOUS
 10
-0.707056
 20
1.235377
  0
VERTEX
  8
LAYER_1
 62
    39
  6
CONTINUOUS
 10
-0.752833
 20
1.199430
  0
VERTEX
  8
LAYER_1
 62
    39
  6
CONTINUOUS
 10
-0.798852
 20
1.163672
  0
VERTEX
  8
LAYER_1
 62
    39
  6
CONTINUOUS
 10
-0.845109
 20
1.128106
  0
VERTEX
  8
LAYER_1
 62
    39
  6
CONTINUOUS
 10
-0.891598
 20
1.092738
  0
VERTEX
  8
LAYER_1
 62
    39
  6
CONTINUOUS
 10
-0.938314
 20
1.057572
  0
VERTEX
  8
LAYER_1
 62
    39
  6
CONTINUOUS
 10
-0.985252
 20
1.022610
  0
VERTEX
  8
LAYER_1
 62
    39
  6
CONTINUOUS
 10
-1.032407
 20
0.987858
  0
VERTEX
  8
LAYER_1
 62
    39
  6
CONTINUOUS
 10
-1.079775
 20
0.953320
  0
VERTEX
  8
LAYER_1
 62
    39
  6
CONTINUOUS
 10
-1.127350
 20
0.919000
  0
VERTEX
  8
LAYER_1
 62
    39
  6
CONTINUOUS
 10
-1.175127
 20
0.884901
  0
VERTEX
  8
LAYER_1
 62
    39
  6
CONTINUOUS
 10
-1.223102
 20
0.851028
  0
VERTEX
  8
LAYER_1
 62
    39
  6
CONTINUOUS
 10
-1.271269
 20
0.817385
  0
VERTEX
  8
LAYER_1
 62
    39
  6
CONTINUOUS
 10
-1.319623
 20
0.783977
  0
VERTEX
  8
LAYER_1
 62
    39
  6
CONTINUOUS
 10
-1.368160
 20
0.750806
  0
VERTEX
  8
LAYER_1
 62
    39
  6
CONTINUOUS
 10
-1.416874
 20
0.717878
  0
VERTEX
  8
LAYER_1
 62
    39
  6
CONTINUOUS
 10
-1.465760
 20
0.685197
  0
VERTEX
  8
LAYER_1
 62
    39
  6
CONTINUOUS
 10
-1.514814
 20
0.652766
  0
VERTEX
  8
LAYER_1
 62
    39
  6
CONTINUOUS
 10
-1.564030
 20
0.620589
  0
VERTEX
  8
LAYER_1
 62
    39
  6
CONTINUOUS
 10
-1.613404
 20
0.588672
  0
VERTEX
  8
LAYER_1
 62
    39
  6
CONTINUOUS
 10
-1.662930
 20
0.557017
  0
VERTEX
  8
LAYER_1
 62
    39
  6
CONTINUOUS
 10
-1.712604
 20
0.525629
  0
VERTEX
  8
LAYER_1
 62
    39
  6
CONTINUOUS
 10
-1.762420
 20
0.494512
  0
VERTEX
  8
LAYER_1
 62
    39
  6
CONTINUOUS
 10
-1.812374
 20
0.463670
  0
VERTEX
  8
LAYER_1
 62
    39
  6
CONTINUOUS
 10
-1.862460
 20
0.433108
  0
VERTEX
  8
LAYER_1
 62
    39
  6
CONTINUOUS
 10
-1.912674
 20
0.402829
  0
VERTEX
  8
LAYER_1
 62
    39
  6
CONTINUOUS
 10
-1.963011
 20
0.372837
  0
VERTEX
  8
LAYER_1
 62
    39
  6
CONTINUOUS
 10
-2.013465
 20
0.343137
  0
VERTEX
  8
LAYER_1
 62
    39
  6
CONTINUOUS
 10
-2.064031
 20
0.313732
  0
VERTEX
  8
LAYER_1
 62
    39
  6
CONTINUOUS
 10
-2.114706
 20
0.284628
  0
VERTEX
  8
LAYER_1
 62
    39
  6
CONTINUOUS
 10
-2.165483
 20
0.255827
  0
VERTEX
  8
LAYER_1
 62
    39
  6
CONTINUOUS
 10
-2.216357
 20
0.227334
  0
VERTEX
  8
LAYER_1
 62
    39
  6
CONTINUOUS
 10
-2.267325
 20
0.199153
  0
VERTEX
  8
LAYER_1
 62
    39
  6
CONTINUOUS
 10
-2.318380
 20
0.171288
  0
VERTEX
  8
LAYER_1
 62
    39
  6
CONTINUOUS
 10
-2.369517
 20
0.143744
  0
VERTEX
  8
LAYER_1
 62
    39
  6
CONTINUOUS
 10
-2.420733
 20
0.116524
  0
VERTEX
  8
LAYER_1
 62
    39
  6
CONTINUOUS
 10
-2.472021
 20
0.089632
  0
VERTEX
  8
LAYER_1
 62
    39
  6
CONTINUOUS
 10
-2.523377
 20
0.063073
  0
VERTEX
  8
LAYER_1
 62
    39
  6
CONTINUOUS
 10
-2.574796
 20
0.036851
  0
VERTEX
  8
LAYER_1
 62
    39
  6
CONTINUOUS
 10
-2.626273
 20
0.010969
  0
VERTEX
  8
LAYER_1
 62
    39
  6
CONTINUOUS
 10
-2.677802
 20
-0.014567
  0
VERTEX
  8
LAYER_1
 62
    39
  6
CONTINUOUS
 10
-2.729380
 20
-0.039755
  0
VERTEX
  8
LAYER_1
 62
    39
  6
CONTINUOUS
 10
-2.781000
 20
-0.064590
  0
VERTEX
  8
LAYER_1
 62
    39
  6
CONTINUOUS
 10
-2.832658
 20
-0.089067
  0
VERTEX
  8
LAYER_1
 62
    39
  6
CONTINUOUS
 10
-2.884349
 20
-0.113183
  0
VERTEX
  8
LAYER_1
 62
    39
  6
CONTINUOUS
 10
-2.936068
 20
-0.136934
  0
VERTEX
  8
LAYER_1
 62
    39
  6
CONTINUOUS
 10
-2.987810
 20
-0.160315
  0
VERTEX
  8
LAYER_1
 62
    39
  6
CONTINUOUS
 10
-3.039570
 20
-0.183323
  0
VERTEX
  8
LAYER_1
 62
    39
  6
CONTINUOUS
 10
-3.091343
 20
-0.205953
  0
VERTEX
  8
LAYER_1
 62
    39
  6
CONTINUOUS
 10
-3.091343
 20
-0.205953
  0
VERTEX
  8
LAYER_1
 62
    39
  6
CONTINUOUS
 10
-3.096598
 20
-0.278551
  0
VERTEX
  8
LAYER_1
 62
    39
  6
CONTINUOUS
 10
-3.069249
 20
-0.327787
  0
VERTEX
  8
LAYER_1
 62
    39
  6
CONTINUOUS
 10
-3.042158
 20
-0.377288
  0
VERTEX
  8
LAYER_1
 62
    39
  6
CONTINUOUS
 10
-3.015327
 20
-0.427048
  0
VERTEX
  8
LAYER_1
 62
    39
  6
CONTINUOUS
 10
-2.988759
 20
-0.477064
  0
VERTEX
  8
LAYER_1
 62
    39
  6
CONTINUOUS
 10
-2.962456
 20
-0.527330
  0
VERTEX
  8
LAYER_1
 62
    39
  6
CONTINUOUS
 10
-2.936420
 20
-0.577842
  0
VERTEX
  8
LAYER_1
 62
    39
  6
CONTINUOUS
 10
-2.910655
 20
-0.628595
  0
VERTEX
  8
LAYER_1
 62
    39
  6
CONTINUOUS
 10
-2.885161
 20
-0.679585
  0
VERTEX
  8
LAYER_1
 62
    39
  6
CONTINUOUS
 10
-2.859942
 20
-0.730807
  0
VERTEX
  8
LAYER_1
 62
    39
  6
CONTINUOUS
 10
-2.835001
 20
-0.782257
  0
VERTEX
  8
LAYER_1
 62
    39
  6
CONTINUOUS
 10
-2.810338
 20
-0.833930
  0
VERTEX
  8
LAYER_1
 62
    39
  6
CONTINUOUS
 10
-2.785957
 20
-0.885821
  0
VERTEX
  8
LAYER_1
 62
    39
  6
CONTINUOUS
 10
-2.761860
 20
-0.937927
  0
VERTEX
  8
LAYER_1
 62
    39
  6
CONTINUOUS
 10
-2.738049
 20
-0.990241
  0
VERTEX
  8
LAYER_1
 62
    39
  6
CONTINUOUS
 10
-2.714528
 20
-1.042760
  0
VERTEX
  8
LAYER_1
 62
    39
  6
CONTINUOUS
 10
-2.691297
 20
-1.095479
  0
VERTEX
  8
LAYER_1
 62
    39
  6
CONTINUOUS
 10
-2.668360
 20
-1.148394
  0
VERTEX
  8
LAYER_1
 62
    39
  6
CONTINUOUS
 10
-2.645718
 20
-1.201499
  0
VERTEX
  8
LAYER_1
 62
    39
  6
CONTINUOUS
 10
-2.623375
 20
-1.254791
  0
VERTEX
  8
LAYER_1
 62
    39
  6
CONTINUOUS
 10
-2.601332
 20
-1.308265
  0
VERTEX
  8
LAYER_1
 62
    39
  6
CONTINUOUS
 10
-2.579593
 20
-1.361915
  0
VERTEX
  8
LAYER_1
 62
    39
  6
CONTINUOUS
 10
-2.558158
 20
-1.415738
  0
VERTEX
  8
LAYER_1
 62
    39
  6
CONTINUOUS
 10
-2.537032
 20
-1.469729
  0
VERTEX
  8
LAYER_1
 62
    39
  6
CONTINUOUS
 10
-2.516215
 20
-1.523884
  0
VERTEX
  8
LAYER_1
 62
    39
  6
CONTINUOUS
 10
-2.495710
 20
-1.578197
  0
VERTEX
  8
LAYER_1
 62
    39
  6
CONTINUOUS
 10
-2.475521
 20
-1.632664
  0
VERTEX
  8
LAYER_1
 62
    39
  6
CONTINUOUS
 10
-2.455648
 20
-1.687281
  0
VERTEX
  8
LAYER_1
 62
    39
  6
CONTINUOUS
 10
-2.436095
 20
-1.742043
  0
VERTEX
  8
LAYER_1
 62
    39
  6
CONTINUOUS
 10
-2.416864
 20
-1.796945
  0
VERTEX
  8
LAYER_1
 62
    39
  6
CONTINUOUS
 10
-2.397957
 20
-1.851983
  0
VERTEX
  8
LAYER_1
 62
    39
  6
CONTINUOUS
 10
-2.379376
 20
-1.907152
  0
VERTEX
  8
LAYER_1
 62
    39
  6
CONTINUOUS
 10
-2.361124
 20
-1.962448
  0
VERTEX
  8
LAYER_1
 62
    39
  6
CONTINUOUS
 10
-2.343204
 20
-2.017866
  0
VERTEX
  8
LAYER_1
 62
    39
  6
CONTINUOUS
 10
-2.325617
 20
-2.073401
  0
VERTEX
  8
LAYER_1
 62
    39
  6
CONTINUOUS
 10
-2.308367
 20
-2.129050
  0
VERTEX
  8
LAYER_1
 62
    39
  6
CONTINUOUS
 10
-2.291454
 20
-2.184806
  0
VERTEX
  8
LAYER_1
 62
    39
  6
CONTINUOUS
 10
-2.274883
 20
-2.240666
  0
VERTEX
  8
LAYER_1
 62
    39
  6
CONTINUOUS
 10
-2.258654
 20
-2.296625
  0
VERTEX
  8
LAYER_1
 62
    39
  6
CONTINUOUS
 10
-2.242771
 20
-2.352679
  0
VERTEX
  8
LAYER_1
 62
    39
  6
CONTINUOUS
 10
-2.227236
 20
-2.408823
  0
VERTEX
  8
LAYER_1
 62
    39
  6
CONTINUOUS
 10
-2.212050
 20
-2.465052
  0
VERTEX
  8
LAYER_1
 62
    39
  6
CONTINUOUS
 10
-2.197218
 20
-2.521361
  0
VERTEX
  8
LAYER_1
 62
    39
  6
CONTINUOUS
 10
-2.182740
 20
-2.577747
  0
VERTEX
  8
LAYER_1
 62
    39
  6
CONTINUOUS
 10
-2.168620
 20
-2.634204
  0
VERTEX
  8
LAYER_1
 62
    39
  6
CONTINUOUS
 10
-2.154859
 20
-2.690729
  0
VERTEX
  8
LAYER_1
 62
    39
  6
CONTINUOUS
 10
-2.141460
 20
-2.747315
  0
VERTEX
  8
LAYER_1
 62
    39
  6
CONTINUOUS
 10
-2.128425
 20
-2.803959
  0
VERTEX
  8
LAYER_1
 62
    39
  6
CONTINUOUS
 10
-2.115758
 20
-2.860657
  0
VERTEX
  8
LAYER_1
 62
    39
  6
CONTINUOUS
 10
-2.103459
 20
-2.917403
  0
VERTEX
  8
LAYER_1
 62
    39
  6
CONTINUOUS
 10
-2.091532
 20
-2.974193
  0
VERTEX
  8
LAYER_1
 62
    39
  6
CONTINUOUS
 10
-2.079978
 20
-3.031023
  0
VERTEX
  8
LAYER_1
 62
    39
  6
CONTINUOUS
 10
-2.068801
 20
-3.087887
  0
VERTEX
  8
LAYER_1
 62
    39
  6
CONTINUOUS
 10
-2.058002
 20
-3.144782
  0
VERTEX
  8
LAYER_1
 62
    39
  6
CONTINUOUS
 10
-2.047584
 20
-3.201702
  0
VERTEX
  8
LAYER_1
 62
    39
  6
CONTINUOUS
 10
-2.037549
 20
-3.258643
  0
VERTEX
  8
LAYER_1
 62
    39
  6
CONTINUOUS
 10
-2.027900
 20
-3.315601
  0
VERTEX
  8
LAYER_1
 62
    39
  6
CONTINUOUS
 10
-2.018639
 20
-3.372571
  0
VERTEX
  8
LAYER_1
 62
    39
  6
CONTINUOUS
 10
-2.009768
 20
-3.429547
  0
VERTEX
  8
LAYER_1
 62
    39
  6
CONTINUOUS
 10
-2.001290
 20
-3.486527
  0
VERTEX
  8
LAYER_1
 62
    39
  6
CONTINUOUS
 10
-1.993207
 20
-3.543505
  0
VERTEX
  8
LAYER_1
 62
    39
  6
CONTINUOUS
 10
-1.985522
 20
-3.600476
  0
VERTEX
  8
LAYER_1
 62
    39
  6
CONTINUOUS
 10
-1.978236
 20
-3.657436
  0
VERTEX
  8
LAYER_1
 62
    39
  6
CONTINUOUS
 10
-1.971352
 20
-3.714380
  0
VERTEX
  8
LAYER_1
 62
    39
  6
CONTINUOUS
 10
-1.964873
 20
-3.771304
  0
VERTEX
  8
LAYER_1
 62
    39
  6
CONTINUOUS
 10
-1.958801
 20
-3.828204
  0
VERTEX
  8
LAYER_1
 62
    39
  6
CONTINUOUS
 10
-1.953138
 20
-3.885074
  0
VERTEX
  8
LAYER_1
 62
    39
  6
CONTINUOUS
 10
-1.947886
 20
-3.941909
  0
VERTEX
  8
LAYER_1
 62
    39
  6
CONTINUOUS
 10
-1.943049
 20
-3.998707
  0
VERTEX
  8
LAYER_1
 62
    39
  6
CONTINUOUS
 10
-1.938628
 20
-4.055461
  0
VERTEX
  8
LAYER_1
 62
    39
  6
CONTINUOUS
 10
-1.934625
 20
-4.112167
  0
VERTEX
  8
LAYER_1
 62
    39
  6
CONTINUOUS
 10
-1.931044
 20
-4.168821
  0
VERTEX
  8
LAYER_1
 62
    39
  6
CONTINUOUS
 10
-1.927886
 20
-4.225417
  0
VERTEX
  8
LAYER_1
 62
    39
  6
CONTINUOUS
 10
-1.927886
 20
-4.225417
  0
VERTEX
  8
LAYER_1
 62
    39
  6
CONTINUOUS
 10
-1.812154
 20
-4.240087
  0
VERTEX
  8
LAYER_1
 62
    39
  6
CONTINUOUS
 10
-1.756397
 20
-4.227074
  0
VERTEX
  8
LAYER_1
 62
    39
  6
CONTINUOUS
 10
-1.700314
 20
-4.214233
  0
VERTEX
  8
LAYER_1
 62
    39
  6
CONTINUOUS
 10
-1.643921
 20
-4.201577
  0
VERTEX
  8
LAYER_1
 62
    39
  6
CONTINUOUS
 10
-1.587233
 20
-4.189124
  0
VERTEX
  8
LAYER_1
 62
    39
  6
CONTINUOUS
 10
-1.530266
 20
-4.176889
  0
VERTEX
  8
LAYER_1
 62
    39
  6
CONTINUOUS
 10
-1.473036
 20
-4.164888
  0
VERTEX
  8
LAYER_1
 62
    39
  6
CONTINUOUS
 10
-1.415559
 20
-4.153137
  0
VERTEX
  8
LAYER_1
 62
    39
  6
CONTINUOUS
 10
-1.357851
 20
-4.141652
  0
VERTEX
  8
LAYER_1
 62
    39
  6
CONTINUOUS
 10
-1.299927
 20
-4.130449
  0
VERTEX
  8
LAYER_1
 62
    39
  6
CONTINUOUS
 10
-1.241804
 20
-4.119543
  0
VERTEX
  8
LAYER_1
 62
    39
  6
CONTINUOUS
 10
-1.183498
 20
-4.108951
  0
VERTEX
  8
LAYER_1
 62
    39
  6
CONTINUOUS
 10
-1.125024
 20
-4.098689
  0
VERTEX
  8
LAYER_1
 62
    39
  6
CONTINUOUS
 10
-1.066398
 20
-4.088772
  0
VERTEX
  8
LAYER_1
 62
    39
  6
CONTINUOUS
 10
-1.007637
 20
-4.079217
  0
VERTEX
  8
LAYER_1
 62
    39
  6
CONTINUOUS
 10
-0.948755
 20
-4.070038
  0
VERTEX
  8
LAYER_1
 62
    39
  6
CONTINUOUS
 10
-0.889769
 20
-4.061253
  0
VERTEX
  8
LAYER_1
 62
    39
  6
CONTINUOUS
 10
-0.830695
 20
-4.052878
  0
VERTEX
  8
LAYER_1
 62
    39
  6
CONTINUOUS
 10
-0.771549
 20
-4.044927
  0
VERTEX
  8
LAYER_1
 62
    39
  6
CONTINUOUS
 10
-0.712346
 20
-4.037417
  0
VERTEX
  8
LAYER_1
 62
    39
  6
CONTINUOUS
 10
-0.653103
 20
-4.030364
  0
VERTEX
  8
LAYER_1
 62
    39
  6
CONTINUOUS
 10
-0.593835
 20
-4.023784
  0
VERTEX
  8
LAYER_1
 62
    39
  6
CONTINUOUS
 10
-0.534558
 20
-4.017693
  0
VERTEX
  8
LAYER_1
 62
    39
  6
CONTINUOUS
 10
-0.475288
 20
-4.012106
  0
VERTEX
  8
LAYER_1
 62
    39
  6
CONTINUOUS
 10
-0.416041
 20
-4.007039
  0
VERTEX
  8
LAYER_1
 62
    39
  6
CONTINUOUS
 10
-0.356833
 20
-4.002510
  0
VERTEX
  8
LAYER_1
 62
    39
  6
CONTINUOUS
 10
-0.297680
 20
-3.998532
  0
VERTEX
  8
LAYER_1
 62
    39
  6
CONTINUOUS
 10
-0.238597
 20
-3.995123
  0
VERTEX
  8
LAYER_1
 62
    39
  6
CONTINUOUS
 10
-0.179601
 20
-3.992298
  0
VERTEX
  8
LAYER_1
 62
    39
  6
CONTINUOUS
 10
-0.120707
 20
-3.990073
  0
VERTEX
  8
LAYER_1
 62
    39
  6
CONTINUOUS
 10
-0.061932
 20
-3.988464
  0
VERTEX
  8
LAYER_1
 62
    39
  6
CONTINUOUS
 10
-0.003291
 20
-3.987487
  0
VERTEX
  8
LAYER_1
 62
    39
  6
CONTINUOUS
 10
0.055201
 20
-3.987157
  0
VERTEX
  8
LAYER_1
 62
    39
  6
CONTINUOUS
 10
0.113692
 20
-3.987487
  0
VERTEX
  8
LAYER_1
 62
    39
  6
CONTINUOUS
 10
0.172334
 20
-3.988464
  0
VERTEX
  8
LAYER_1
 62
    39
  6
CONTINUOUS
 10
0.231109
 20
-3.990075
  0
VERTEX
  8
LAYER_1
 62
    39
  6
CONTINUOUS
 10
0.290003
 20
-3.992303
  0
VERTEX
  8
LAYER_1
 62
    39
  6
CONTINUOUS
 10
0.349000
 20
-3.995133
  0
VERTEX
  8
LAYER_1
 62
    39
  6
CONTINUOUS
 10
0.408083
 20
-3.998550
  0
VERTEX
  8
LAYER_1
 62
    39
  6
CONTINUOUS
 10
0.467237
 20
-4.002538
  0
VERTEX
  8
LAYER_1
 62
    39
  6
CONTINUOUS
 10
0.526446
 20
-4.007082
  0
VERTEX
  8
LAYER_1
 62
    39
  6
CONTINUOUS
 10
0.585694
 20
-4.012167
  0
VERTEX
  8
LAYER_1
 62
    39
  6
CONTINUOUS
 10
0.644965
 20
-4.017777
  0
VERTEX
  8
LAYER_1
 62
    39
  6
CONTINUOUS
 10
0.704244
 20
-4.023896
  0
VERTEX
  8
LAYER_1
 62
    39
  6
CONTINUOUS
 10
0.763515
 20
-4.030509
  0
VERTEX
  8
LAYER_1
 62
    39
  6
CONTINUOUS
 10
0.822761
 20
-4.037602
  0
VERTEX
  8
LAYER_1
 62
    39
  6
CONTINUOUS
 10
0.881967
 20
-4.045158
  0
VERTEX
  8
LAYER_1
 62
    39
  6
CONTINUOUS
 10
0.941117
 20
-4.053161
  0
VERTEX
  8
LAYER_1
 62
    39
  6
CONTINUOUS
 10
1.000195
 20
-4.061598
  0
VERTEX
  8
LAYER_1
 62
    39
  6
CONTINUOUS
 10
1.059185
 20
-4.070452
  0
VERTEX
  8
LAYER_1
 62
    39
  6
CONTINUOUS
 10
1.118072
 20
-4.079707
  0
VERTEX
  8
LAYER_1
 62
    39
  6
CONTINUOUS
 10
1.176840
 20
-4.089349
  0
VERTEX
  8
LAYER_1
 62
    39
  6
CONTINUOUS
 10
1.235473
 20
-4.099362
  0
VERTEX
  8
LAYER_1
 62
    39
  6
CONTINUOUS
 10
1.293954
 20
-4.109730
  0
VERTEX
  8
LAYER_1
 62
    39
  6
CONTINUOUS
 10
1.352269
 20
-4.120439
  0
VERTEX
  8
LAYER_1
 62
    39
  6
CONTINUOUS
 10
1.410400
 20
-4.131472
  0
VERTEX
  8
LAYER_1
 62
    39
  6
CONTINUOUS
 10
1.468334
 20
-4.142814
  0
VERTEX
  8
LAYER_1
 62
    39
  6
CONTINUOUS
 10
1.526052
 20
-4.154451
  0
VERTEX
  8
LAYER_1
 62
    39
  6
CONTINUOUS
 10
1.583541
 20
-4.166366
  0
VERTEX
  8
LAYER_1
 62
    39
  6
CONTINUOUS
 10
1.640783
 20
-4.178544
  0
VERTEX
  8
LAYER_1
 62
    39
  6
CONTINUOUS
 10
1.697764
 20
-4.190970
  0
VERTEX
  8
LAYER_1
 62
    39
  6
CONTINUOUS
 10
1.754466
 20
-4.203628
  0
VERTEX
  8
LAYER_1
 62
    39
  6
CONTINUOUS
 10
1.810875
 20
-4.216503
  0
VERTEX
  8
LAYER_1
 62
    39
  6
CONTINUOUS
 10
1.866974
 20
-4.229580
  0
VERTEX
  8
LAYER_1
 62
    39
  6
CONTINUOUS
 10
1.922748
 20
-4.242843
  0
VERTEX
  8
LAYER_1
 62
    39
  6
CONTINUOUS
 10
1.988260
 20
-4.204280
  0
VERTEX
  8
LAYER_1
 62
    39
  6
CONTINUOUS
 10
2.002391
 20
-4.151008
  0
VERTEX
  8
LAYER_1
 62
    39
  6
CONTINUOUS
 10
2.016870
 20
-4.097486
  0
VERTEX
  8
LAYER_1
 62
    39
  6
CONTINUOUS
 10
2.031693
 20
-4.043724
  0
VERTEX
  8
LAYER_1
 62
    39
  6
CONTINUOUS
 10
2.046853
 20
-3.989735
  0
VERTEX
  8
LAYER_1
 62
    39
  6
CONTINUOUS
 10
2.062345
 20
-3.935529
  0
VERTEX
  8
LAYER_1
 62
    39
  6
CONTINUOUS
 10
2.078163
 20
-3.881117
  0
VERTEX
  8
LAYER_1
 62
    39
  6
CONTINUOUS
 10
2.094302
 20
-3.826511
  0
VERTEX
  8
LAYER_1
 62
    39
  6
CONTINUOUS
 10
2.110755
 20
-3.771722
  0
VERTEX
  8
LAYER_1
 62
    39
  6
CONTINUOUS
 10
2.127518
 20
-3.716761
  0
VERTEX
  8
LAYER_1
 62
    39
  6
CONTINUOUS
 10
2.144585
 20
-3.661639
  0
VERTEX
  8
LAYER_1
 62
    39
  6
CONTINUOUS
 10
2.161950
 20
-3.606368
  0
VERTEX
  8
LAYER_1
 62
    39
  6
CONTINUOUS
 10
2.179608
 20
-3.550959
  0
VERTEX
  8
LAYER_1
 62
    39
  6
CONTINUOUS
 10
2.197552
 20
-3.495422
  0
VERTEX
  8
LAYER_1
 62
    39
  6
CONTINUOUS
 10
2.215778
 20
-3.439770
  0
VERTEX
  8
LAYER_1
 62
    39
  6
CONTINUOUS
 10
2.234280
 20
-3.384013
  0
VERTEX
  8
LAYER_1
 62
    39
  6
CONTINUOUS
 10
2.253052
 20
-3.328163
  0
VERTEX
  8
LAYER_1
 62
    39
  6
CONTINUOUS
 10
2.272089
 20
-3.272231
  0
VERTEX
  8
LAYER_1
 62
    39
  6
CONTINUOUS
 10
2.291384
 20
-3.216227
  0
VERTEX
  8
LAYER_1
 62
    39
  6
CONTINUOUS
 10
2.310933
 20
-3.160164
  0
VERTEX
  8
LAYER_1
 62
    39
  6
CONTINUOUS
 10
2.330729
 20
-3.104053
  0
VERTEX
  8
LAYER_1
 62
    39
  6
CONTINUOUS
 10
2.350768
 20
-3.047904
  0
VERTEX
  8
LAYER_1
 62
    39
  6
CONTINUOUS
 10
2.371043
 20
-2.991729
  0
VERTEX
  8
LAYER_1
 62
    39
  6
CONTINUOUS
 10
2.391549
 20
-2.935539
  0
VERTEX
  8
LAYER_1
 62
    39
  6
CONTINUOUS
 10
2.412281
 20
-2.879345
  0
VERTEX
  8
LAYER_1
 62
    39
  6
CONTINUOUS
 10
2.433232
 20
-2.823159
  0
VERTEX
  8
LAYER_1
 62
    39
  6
CONTINUOUS
 10
2.454398
 20
-2.766992
  0
VERTEX
  8
LAYER_1
 62
    39
  6
CONTINUOUS
 10
2.475771
 20
-2.710854
  0
VERTEX
  8
LAYER_1
 62
    39
  6
CONTINUOUS
 10
2.497348
 20
-2.654758
  0
VERTEX
  8
LAYER_1
 62
    39
  6
CONTINUOUS
 10
2.519122
 20
-2.598714
  0
VERTEX
  8
LAYER_1
 62
    39
  6
CONTINUOUS
 10
2.541088
 20
-2.542734
  0
VERTEX
  8
LAYER_1
 62
    39
  6
CONTINUOUS
 10
2.563240
 20
-2.486829
  0
VERTEX
  8
LAYER_1
 62
    39
  6
CONTINUOUS
 10
2.585573
 20
-2.431010
  0
VERTEX
  8
LAYER_1
 62
    39
  6
CONTINUOUS
 10
2.608080
 20
-2.375288
  0
VERTEX
  8
LAYER_1
 62
    39
  6
CONTINUOUS
 10
2.630757
 20
-2.319674
  0
VERTEX
  8
LAYER_1
 62
    39
  6
CONTINUOUS
 10
2.653597
 20
-2.264181
  0
VERTEX
  8
LAYER_1
 62
    39
  6
CONTINUOUS
 10
2.676596
 20
-2.208818
  0
VERTEX
  8
LAYER_1
 62
    39
  6
CONTINUOUS
 10
2.699747
 20
-2.153597
  0
VERTEX
  8
LAYER_1
 62
    39
  6
CONTINUOUS
 10
2.723045
 20
-2.098530
  0
VERTEX
  8
LAYER_1
 62
    39
  6
CONTINUOUS
 10
2.746484
 20
-2.043627
  0
VERTEX
  8
LAYER_1
 62
    39
  6
CONTINUOUS
 10
2.770059
 20
-1.988900
  0
VERTEX
  8
LAYER_1
 62
    39
  6
CONTINUOUS
 10
2.793764
 20
-1.934360
  0
VERTEX
  8
LAYER_1
 62
    39
  6
CONTINUOUS
 10
2.817593
 20
-1.880018
  0
VERTEX
  8
LAYER_1
 62
    39
  6
CONTINUOUS
 10
2.841541
 20
-1.825885
  0
VERTEX
  8
LAYER_1
 62
    39
  6
CONTINUOUS
 10
2.865603
 20
-1.771973
  0
VERTEX
  8
LAYER_1
 62
    39
  6
CONTINUOUS
 10
2.889772
 20
-1.718293
  0
VERTEX
  8
LAYER_1
 62
    39
  6
CONTINUOUS
 10
2.914043
 20
-1.664856
  0
VERTEX
  8
LAYER_1
 62
    39
  6
CONTINUOUS
 10
2.938411
 20
-1.611674
  0
VERTEX
  8
LAYER_1
 62
    39
  6
CONTINUOUS
 10
2.962869
 20
-1.558757
  0
VERTEX
  8
LAYER_1
 62
    39
  6
CONTINUOUS
 10
2.987413
 20
-1.506116
  0
VERTEX
  8
LAYER_1
 62
    39
  6
CONTINUOUS
 10
3.012036
 20
-1.453764
  0
VERTEX
  8
LAYER_1
 62
    39
  6
CONTINUOUS
 10
3.036734
 20
-1.401710
  0
VERTEX
  8
LAYER_1
 62
    39
  6
CONTINUOUS
 10
3.061500
 20
-1.349967
  0
VERTEX
  8
LAYER_1
 62
    39
  6
CONTINUOUS
 10
3.086328
 20
-1.298546
  0
VERTEX
  8
LAYER_1
 62
    39
  6
CONTINUOUS
 10
3.111214
 20
-1.247457
  0
VERTEX
  8
LAYER_1
 62
    39
  6
CONTINUOUS
 10
3.136152
 20
-1.196712
  0
VERTEX
  8
LAYER_1
 62
    39
  6
CONTINUOUS
 10
3.161136
 20
-1.146323
  0
VERTEX
  8
LAYER_1
 62
    39
  6
CONTINUOUS
 10
3.186160
 20
-1.096300
  0
VERTEX
  8
LAYER_1
 62
    39
  6
CONTINUOUS
 10
3.211218
 20
-1.046654
  0
VERTEX
  8
LAYER_1
 62
    39
  6
CONTINUOUS
 10
3.236306
 20
-0.997398
  0
VERTEX
  8
LAYER_1
 62
    39
  6
CONTINUOUS
 10
3.261418
 20
-0.948541
  0
VERTEX
  8
LAYER_1
 62
    39
  6
CONTINUOUS
 10
3.286548
 20
-0.900096
  0
VERTEX
  8
LAYER_1
 62
    39
  6
CONTINUOUS
 10
3.311690
 20
-0.852073
  0
VERTEX
  8
LAYER_1
 62
    39
  6
CONTINUOUS
 10
3.336839
 20
-0.804484
  0
VERTEX
  8
LAYER_1
 62
    39
  6
CONTINUOUS
 10
3.336839
 20
-0.804484
  0
VERTEX
  8
LAYER_1
 62
    39
  6
CONTINUOUS
 10
3.279252
 20
-0.720425
  0
SEQEND
  8
0
  0
TEXT
  8
LAYER_1
 62
     7
 10
2.213315
 20
-2.673031
 40
0.281090
  1
15
 50
64.916307
 41
1.000000
  7
SN0
 71
     0
 72
     5
 11
2.300908
 21
-2.485905
  0
TEXT
  8
LAYER_1
 62
     7
 10
1.797921
 20
0.091835
 40
0.281090
  1
13
 50
133.781858
 41
1.000000
  7
SN0
 71
     0
 72
     5
 11
1.655290
 21
0.240668
  0
POLYLINE
  8
LAYER_1
 62
    39
  6
CONTINUOUS
 66
     1
 40
0.027780
 41
0.027780
  0
VERTEX
  8
LAYER_1
 62
    39
  6
CONTINUOUS
 10
-2.127980
 20
4.688598
  0
VERTEX
  8
LAYER_1
 62
    39
  6
CONTINUOUS
 10
1.809016
 20
4.681598
  0
SEQEND
  8
0
  0
POLYLINE
  8
LAYER_1
 62
    39
  6
CONTINUOUS
 66
     1
 40
0.003000
 41
0.003000
  0
VERTEX
  8
LAYER_1
 62
    39
  6
CONTINUOUS
 10
-2.128071
 20
4.536469
  0
VERTEX
  8
LAYER_1
 62
    39
  6
CONTINUOUS
 10
-2.127894
 20
4.836063
  0
SEQEND
  8
0
  0
POLYLINE
  8
LAYER_1
 62
    39
  6
CONTINUOUS
 66
     1
 40
0.003000
 41
0.003000
  0
VERTEX
  8
LAYER_1
 62
    39
  6
CONTINUOUS
 10
1.809024
 20
4.836063
  0
VERTEX
  8
LAYER_1
 62
    39
  6
CONTINUOUS
 10
1.809024
 20
4.536469
  0
SEQEND
  8
0
  0
POLYLINE
  8
LAYER_1
 62
    39
  6
CONTINUOUS
 66
     1
 40
0.027780
 41
0.027780
  0
VERTEX
  8
LAYER_1
 62
    39
  6
CONTINUOUS
 10
3.043559
 20
5.121303
  0
VERTEX
  8
LAYER_1
 62
    39
  6
CONTINUOUS
 10
3.037724
 20
1.184303
  0
SEQEND
  8
0
  0
POLYLINE
  8
LAYER_1
 62
    39
  6
CONTINUOUS
 66
     1
 40
0.003000
 41
0.003000
  0
VERTEX
  8
LAYER_1
 62
    39
  6
CONTINUOUS
 10
2.892594
 20
5.121350
  0
VERTEX
  8
LAYER_1
 62
    39
  6
CONTINUOUS
 10
3.192189
 20
5.121260
  0
SEQEND
  8
0
  0
POLYLINE
  8
LAYER_1
 62
    39
  6
CONTINUOUS
 66
     1
 40
0.003000
 41
0.003000
  0
VERTEX
  8
LAYER_1
 62
    39
  6
CONTINUOUS
 10
3.192189
 20
1.184165
  0
VERTEX
  8
LAYER_1
 62
    39
  6
CONTINUOUS
 10
2.892594
 20
1.184429
  0
SEQEND
  8
0
  0
TEXT
  8
LAYER_1
 62
     7
 10
0.544043
 20
3.720445
 40
0.281090
  1
100 mm
 50
326.423363
 41
1.000000
  7
SN1
 71
     0
 72
     5
 11
1.180940
 21
3.297628
  0
POLYLINE
  8
LAYER_1
 62
     7
  6
CONTINUOUS
 66
     1
 40
0.003000
 41
0.003000
  0
VERTEX
  8
LAYER_1
 62
     7
  6
CONTINUOUS
 10
-1.233854
 20
-1.023039
  0
VERTEX
  8
LAYER_1
 62
     7
  6
CONTINUOUS
 10
1.461657
 20
-1.023039
  0
VERTEX
  8
LAYER_1
 62
     7
  6
CONTINUOUS
 10
1.512844
 20
-1.035359
  0
VERTEX
  8
LAYER_1
 62
     7
  6
CONTINUOUS
 10
1.558433
 20
-1.054403
  0
VERTEX
  8
LAYER_1
 62
     7
  6
CONTINUOUS
 10
1.598420
 20
-1.079374
  0
VERTEX
  8
LAYER_1
 62
     7
  6
CONTINUOUS
 10
1.632799
 20
-1.109474
  0
VERTEX
  8
LAYER_1
 62
     7
  6
CONTINUOUS
 10
1.661564
 20
-1.143906
  0
VERTEX
  8
LAYER_1
 62
     7
  6
CONTINUOUS
 10
1.684710
 20
-1.181872
  0
VERTEX
  8
LAYER_1
 62
     7
  6
CONTINUOUS
 10
1.702229
 20
-1.222574
  0
VERTEX
  8
LAYER_1
 62
     7
  6
CONTINUOUS
 10
1.714118
 20
-1.265216
  0
VERTEX
  8
LAYER_1
 62
     7
  6
CONTINUOUS
 10
1.720369
 20
-1.308999
  0
VERTEX
  8
LAYER_1
 62
     7
  6
CONTINUOUS
 10
1.720977
 20
-1.353126
  0
VERTEX
  8
LAYER_1
 62
     7
  6
CONTINUOUS
 10
1.715937
 20
-1.396800
  0
VERTEX
  8
LAYER_1
 62
     7
  6
CONTINUOUS
 10
1.705242
 20
-1.439222
  0
VERTEX
  8
LAYER_1
 62
     7
  6
CONTINUOUS
 10
1.688887
 20
-1.479596
  0
VERTEX
  8
LAYER_1
 62
     7
  6
CONTINUOUS
 10
1.666866
 20
-1.517123
  0
VERTEX
  8
LAYER_1
 62
     7
  6
CONTINUOUS
 10
1.639173
 20
-1.551007
  0
VERTEX
  8
LAYER_1
 62
     7
  6
CONTINUOUS
 10
1.605802
 20
-1.580449
  0
VERTEX
  8
LAYER_1
 62
     7
  6
CONTINUOUS
 10
1.566748
 20
-1.604653
  0
VERTEX
  8
LAYER_1
 62
     7
  6
CONTINUOUS
 10
1.522005
 20
-1.622820
  0
VERTEX
  8
LAYER_1
 62
     7
  6
CONTINUOUS
 10
1.471567
 20
-1.634154
  0
VERTEX
  8
LAYER_1
 62
     7
  6
CONTINUOUS
 10
-1.243764
 20
-1.634154
  0
VERTEX
  8
LAYER_1
 62
     7
  6
CONTINUOUS
 10
-1.292555
 20
-1.623572
  0
VERTEX
  8
LAYER_1
 62
     7
  6
CONTINUOUS
 10
-1.336005
 20
-1.606517
  0
VERTEX
  8
LAYER_1
 62
     7
  6
CONTINUOUS
 10
-1.374140
 20
-1.583718
  0
VERTEX
  8
LAYER_1
 62
     7
  6
CONTINUOUS
 10
-1.406986
 20
-1.555903
  0
VERTEX
  8
LAYER_1
 62
     7
  6
CONTINUOUS
 10
-1.434568
 20
-1.523800
  0
VERTEX
  8
LAYER_1
 62
     7
  6
CONTINUOUS
 10
-1.456910
 20
-1.488138
  0
VERTEX
  8
LAYER_1
 62
     7
  6
CONTINUOUS
 10
-1.474040
 20
-1.449645
  0
VERTEX
  8
LAYER_1
 62
     7
  6
CONTINUOUS
 10
-1.485981
 20
-1.409049
  0
VERTEX
  8
LAYER_1
 62
     7
  6
CONTINUOUS
 10
-1.492760
 20
-1.367080
  0
VERTEX
  8
LAYER_1
 62
     7
  6
CONTINUOUS
 10
-1.494401
 20
-1.324464
  0
VERTEX
  8
LAYER_1
 62
     7
  6
CONTINUOUS
 10
-1.490931
 20
-1.281931
  0
VERTEX
  8
LAYER_1
 62
     7
  6
CONTINUOUS
 10
-1.482374
 20
-1.240210
  0
VERTEX
  8
LAYER_1
 62
     7
  6
CONTINUOUS
 10
-1.468756
 20
-1.200027
  0
VERTEX
  8
LAYER_1
 62
     7
  6
CONTINUOUS
 10
-1.450102
 20
-1.162113
  0
VERTEX
  8
LAYER_1
 62
     7
  6
CONTINUOUS
 10
-1.426438
 20
-1.127194
  0
VERTEX
  8
LAYER_1
 62
     7
  6
CONTINUOUS
 10
-1.397790
 20
-1.096001
  0
VERTEX
  8
LAYER_1
 62
     7
  6
CONTINUOUS
 10
-1.364182
 20
-1.069260
  0
VERTEX
  8
LAYER_1
 62
     7
  6
CONTINUOUS
 10
-1.325639
 20
-1.047700
  0
VERTEX
  8
LAYER_1
 62
     7
  6
CONTINUOUS
 10
-1.282188
 20
-1.032051
  0
VERTEX
  8
LAYER_1
 62
     7
  6
CONTINUOUS
 10
-1.233854
 20
-1.023039
  0
VERTEX
  8
LAYER_1
 62
     7
  6
CONTINUOUS
 10
-1.233854
 20
-1.023039
  0
SEQEND
  8
0
  0
POLYLINE
  8
LAYER_1
 62
     7
  6
CONTINUOUS
 66
     1
 40
0.003000
 41
0.003000
  0
VERTEX
  8
LAYER_1
 62
     7
  6
CONTINUOUS
 10
-0.704016
 20
-1.433862
  0
VERTEX
  8
LAYER_1
 62
     7
  6
CONTINUOUS
 10
-0.701054
 20
-1.441793
  0
VERTEX
  8
LAYER_1
 62
     7
  6
CONTINUOUS
 10
-0.692211
 20
-1.444904
  0
VERTEX
  8
LAYER_1
 62
     7
  6
CONTINUOUS
 10
-0.681598
 20
-1.442583
  0
VERTEX
  8
LAYER_1
 62
     7
  6
CONTINUOUS
 10
-0.675957
 20
-1.436657
  0
VERTEX
  8
LAYER_1
 62
     7
  6
CONTINUOUS
 10
-0.671594
 20
-1.425763
  0
VERTEX
  8
LAYER_1
 62
     7
  6
CONTINUOUS
 10
-0.669331
 20
-1.410906
  0
VERTEX
  8
LAYER_1
 62
     7
  6
CONTINUOUS
 10
-0.658350
 20
-1.409728
  0
VERTEX
  8
LAYER_1
 62
     7
  6
CONTINUOUS
 10
-0.670297
 20
-1.444903
  0
VERTEX
  8
LAYER_1
 62
     7
  6
CONTINUOUS
 10
-0.691903
 20
-1.467106
  0
VERTEX
  8
LAYER_1
 62
     7
  6
CONTINUOUS
 10
-0.721106
 20
-1.469370
  0
VERTEX
  8
LAYER_1
 62
     7
  6
CONTINUOUS
 10
-0.731456
 20
-1.464529
  0
VERTEX
  8
LAYER_1
 62
     7
  6
CONTINUOUS
 10
-0.744162
 20
-1.453369
  0
VERTEX
  8
LAYER_1
 62
     7
  6
CONTINUOUS
 10
-0.748756
 20
-1.435642
  0
VERTEX
  8
LAYER_1
 62
     7
  6
CONTINUOUS
 10
-0.723122
 20
-1.252350
  0
VERTEX
  8
LAYER_1
 62
     7
  6
CONTINUOUS
 10
-0.679886
 20
-1.252854
  0
VERTEX
  8
LAYER_1
 62
     7
  6
CONTINUOUS
 10
-0.704016
 20
-1.433862
  0
SEQEND
  8
0
  0
POLYLINE
  8
LAYER_1
 62
     7
  6
CONTINUOUS
 66
     1
 40
0.003000
 41
0.003000
  0
VERTEX
  8
LAYER_1
 62
     7
  6
CONTINUOUS
 10
-1.094646
 20
-1.163217
  0
VERTEX
  8
LAYER_1
 62
     7
  6
CONTINUOUS
 10
-1.030445
 20
-1.163217
  0
VERTEX
  8
LAYER_1
 62
     7
  6
CONTINUOUS
 10
-1.050791
 20
-1.311453
  0
VERTEX
  8
LAYER_1
 62
     7
  6
CONTINUOUS
 10
-0.928689
 20
-1.169665
  0
VERTEX
  8
LAYER_1
 62
     7
  6
CONTINUOUS
 10
-0.908767
 20
-1.159477
  0
VERTEX
  8
LAYER_1
 62
     7
  6
CONTINUOUS
 10
-0.890032
 20
-1.164526
  0
VERTEX
  8
LAYER_1
 62
     7
  6
CONTINUOUS
 10
-0.879780
 20
-1.175248
  0
VERTEX
  8
LAYER_1
 62
     7
  6
CONTINUOUS
 10
-0.880994
 20
-1.201749
  0
VERTEX
  8
LAYER_1
 62
     7
  6
CONTINUOUS
 10
-0.899606
 20
-1.222462
  0
VERTEX
  8
LAYER_1
 62
     7
  6
CONTINUOUS
 10
-0.936752
 20
-1.211008
  0
VERTEX
  8
LAYER_1
 62
     7
  6
CONTINUOUS
 10
-1.011362
 20
-1.297031
  0
VERTEX
  8
LAYER_1
 62
     7
  6
CONTINUOUS
 10
-0.955839
 20
-1.426500
  0
VERTEX
  8
LAYER_1
 62
     7
  6
CONTINUOUS
 10
-0.940825
 20
-1.439824
  0
VERTEX
  8
LAYER_1
 62
     7
  6
CONTINUOUS
 10
-0.925290
 20
-1.432077
  0
VERTEX
  8
LAYER_1
 62
     7
  6
CONTINUOUS
 10
-0.920264
 20
-1.409126
  0
VERTEX
  8
LAYER_1
 62
     7
  6
CONTINUOUS
 10
-0.906386
 20
-1.409992
  0
VERTEX
  8
LAYER_1
 62
     7
  6
CONTINUOUS
 10
-0.908489
 20
-1.425339
  0
VERTEX
  8
LAYER_1
 62
     7
  6
CONTINUOUS
 10
-0.914810
 20
-1.441532
  0
VERTEX
  8
LAYER_1
 62
     7
  6
CONTINUOUS
 10
-0.926354
 20
-1.457402
  0
VERTEX
  8
LAYER_1
 62
     7
  6
CONTINUOUS
 10
-0.953671
 20
-1.471245
  0
VERTEX
  8
LAYER_1
 62
     7
  6
CONTINUOUS
 10
-0.982747
 20
-1.466984
  0
VERTEX
  8
LAYER_1
 62
     7
  6
CONTINUOUS
 10
-1.001819
 20
-1.447354
  0
VERTEX
  8
LAYER_1
 62
     7
  6
CONTINUOUS
 10
-1.051268
 20
-1.318756
  0
VERTEX
  8
LAYER_1
 62
     7
  6
CONTINUOUS
 10
-1.072091
 20
-1.463866
  0
VERTEX
  8
LAYER_1
 62
     7
  6
CONTINUOUS
 10
-1.135421
 20
-1.463866
  0
VERTEX
  8
LAYER_1
 62
     7
  6
CONTINUOUS
 10
-1.133685
 20
-1.444752
  0
VERTEX
  8
LAYER_1
 62
     7
  6
CONTINUOUS
 10
-1.111996
 20
-1.444752
  0
VERTEX
  8
LAYER_1
 62
     7
  6
CONTINUOUS
 10
-1.076429
 20
-1.185811
  0
VERTEX
  8
LAYER_1
 62
     7
  6
CONTINUOUS
 10
-1.097248
 20
-1.184941
  0
VERTEX
  8
LAYER_1
 62
     7
  6
CONTINUOUS
 10
-1.094646
 20
-1.163217
  0
SEQEND
  8
0
  0
POLYLINE
  8
LAYER_1
 62
     7
  6
CONTINUOUS
 66
     1
 40
0.003000
 41
0.003000
  0
VERTEX
  8
LAYER_1
 62
     7
  6
CONTINUOUS
 10
-0.669657
 20
-1.196220
  0
VERTEX
  8
LAYER_1
 62
     7
  6
CONTINUOUS
 10
-0.674090
 20
-1.206495
  0
VERTEX
  8
LAYER_1
 62
     7
  6
CONTINUOUS
 10
-0.684599
 20
-1.214355
  0
VERTEX
  8
LAYER_1
 62
     7
  6
CONTINUOUS
 10
-0.696299
 20
-1.217362
  0
VERTEX
  8
LAYER_1
 62
     7
  6
CONTINUOUS
 10
-0.705992
 20
-1.213912
  0
VERTEX
  8
LAYER_1
 62
     7
  6
CONTINUOUS
 10
-0.712740
 20
-1.205697
  0
VERTEX
  8
LAYER_1
 62
     7
  6
CONTINUOUS
 10
-0.715402
 20
-1.195213
  0
VERTEX
  8
LAYER_1
 62
     7
  6
CONTINUOUS
 10
-0.711325
 20
-1.184796
  0
VERTEX
  8
LAYER_1
 62
     7
  6
CONTINUOUS
 10
-0.701512
 20
-1.176504
  0
VERTEX
  8
LAYER_1
 62
     7
  6
CONTINUOUS
 10
-0.690276
 20
-1.173248
  0
VERTEX
  8
LAYER_1
 62
     7
  6
CONTINUOUS
 10
-0.679948
 20
-1.176794
  0
VERTEX
  8
LAYER_1
 62
     7
  6
CONTINUOUS
 10
-0.672594
 20
-1.185280
  0
VERTEX
  8
LAYER_1
 62
     7
  6
CONTINUOUS
 10
-0.669657
 20
-1.196220
  0
SEQEND
  8
0
  0
POLYLINE
  8
LAYER_1
 62
     7
  6
CONTINUOUS
 66
     1
 40
0.003000
 41
0.003000
  0
VERTEX
  8
LAYER_1
 62
     7
  6
CONTINUOUS
 10
-0.505291
 20
-1.308992
  0
VERTEX
  8
LAYER_1
 62
     7
  6
CONTINUOUS
 10
-0.500768
 20
-1.283315
  0
VERTEX
  8
LAYER_1
 62
     7
  6
CONTINUOUS
 10
-0.487193
 20
-1.260629
  0
VERTEX
  8
LAYER_1
 62
     7
  6
CONTINUOUS
 10
-0.463792
 20
-1.247763
  0
VERTEX
  8
LAYER_1
 62
     7
  6
CONTINUOUS
 10
-0.442461
 20
-1.247571
  0
VERTEX
  8
LAYER_1
 62
     7
  6
CONTINUOUS
 10
-0.423684
 20
-1.260465
  0
VERTEX
  8
LAYER_1
 62
     7
  6
CONTINUOUS
 10
-0.414919
 20
-1.278505
  0
VERTEX
  8
LAYER_1
 62
     7
  6
CONTINUOUS
 10
-0.416827
 20
-1.301441
  0
VERTEX
  8
LAYER_1
 62
     7
  6
CONTINUOUS
 10
-0.404119
 20
-1.284310
  0
VERTEX
  8
LAYER_1
 62
     7
  6
CONTINUOUS
 10
-0.391076
 20
-1.267178
  0
VERTEX
  8
LAYER_1
 62
     7
  6
CONTINUOUS
 10
-0.375610
 20
-1.253110
  0
VERTEX
  8
LAYER_1
 62
     7
  6
CONTINUOUS
 10
-0.352633
 20
-1.243606
  0
VERTEX
  8
LAYER_1
 62
     7
  6
CONTINUOUS
 10
-0.328824
 20
-1.244254
  0
VERTEX
  8
LAYER_1
 62
     7
  6
CONTINUOUS
 10
-0.306744
 20
-1.255626
  0
VERTEX
  8
LAYER_1
 62
     7
  6
CONTINUOUS
 10
-0.299406
 20
-1.264575
  0
VERTEX
  8
LAYER_1
 62
     7
  6
CONTINUOUS
 10
-0.295185
 20
-1.275751
  0
VERTEX
  8
LAYER_1
 62
     7
  6
CONTINUOUS
 10
-0.294681
 20
-1.287343
  0
VERTEX
  8
LAYER_1
 62
     7
  6
CONTINUOUS
 10
-0.314787
 20
-1.431831
  0
VERTEX
  8
LAYER_1
 62
     7
  6
CONTINUOUS
 10
-0.307832
 20
-1.442772
  0
VERTEX
  8
LAYER_1
 62
     7
  6
CONTINUOUS
 10
-0.291994
 20
-1.441719
  0
VERTEX
  8
LAYER_1
 62
     7
  6
CONTINUOUS
 10
-0.282114
 20
-1.430319
  0
VERTEX
  8
LAYER_1
 62
     7
  6
CONTINUOUS
 10
-0.279602
 20
-1.409681
  0
VERTEX
  8
LAYER_1
 62
     7
  6
CONTINUOUS
 10
-0.269047
 20
-1.409681
  0
VERTEX
  8
LAYER_1
 62
     7
  6
CONTINUOUS
 10
-0.269686
 20
-1.421763
  0
VERTEX
  8
LAYER_1
 62
     7
  6
CONTINUOUS
 10
-0.271498
 20
-1.433399
  0
VERTEX
  8
LAYER_1
 62
     7
  6
CONTINUOUS
 10
-0.275079
 20
-1.445421
  0
VERTEX
  8
LAYER_1
 62
     7
  6
CONTINUOUS
 10
-0.303663
 20
-1.467654
  0
VERTEX
  8
LAYER_1
 62
     7
  6
CONTINUOUS
 10
-0.342074
 20
-1.464499
  0
VERTEX
  8
LAYER_1
 62
     7
  6
CONTINUOUS
 10
-0.358016
 20
-1.434850
  0
VERTEX
  8
LAYER_1
 62
     7
  6
CONTINUOUS
 10
-0.338913
 20
-1.298417
  0
VERTEX
  8
LAYER_1
 62
     7
  6
CONTINUOUS
 10
-0.341139
 20
-1.283936
  0
VERTEX
  8
LAYER_1
 62
     7
  6
CONTINUOUS
 10
-0.351429
 20
-1.276084
  0
VERTEX
  8
LAYER_1
 62
     7
  6
CONTINUOUS
 10
-0.368067
 20
-1.277272
  0
VERTEX
  8
LAYER_1
 62
     7
  6
CONTINUOUS
 10
-0.384101
 20
-1.287981
  0
VERTEX
  8
LAYER_1
 62
     7
  6
CONTINUOUS
 10
-0.402967
 20
-1.307724
  0
VERTEX
  8
LAYER_1
 62
     7
  6
CONTINUOUS
 10
-0.421350
 20
-1.331646
  0
VERTEX
  8
LAYER_1
 62
     7
  6
CONTINUOUS
 10
-0.440953
 20
-1.465055
  0
VERTEX
  8
LAYER_1
 62
     7
  6
CONTINUOUS
 10
-0.483677
 20
-1.465559
  0
VERTEX
  8
LAYER_1
 62
     7
  6
CONTINUOUS
 10
-0.459047
 20
-1.288854
  0
VERTEX
  8
LAYER_1
 62
     7
  6
CONTINUOUS
 10
-0.465603
 20
-1.276086
  0
VERTEX
  8
LAYER_1
 62
     7
  6
CONTINUOUS
 10
-0.480928
 20
-1.275533
  0
VERTEX
  8
LAYER_1
 62
     7
  6
CONTINUOUS
 10
-0.490717
 20
-1.287846
  0
VERTEX
  8
LAYER_1
 62
     7
  6
CONTINUOUS
 10
-0.493228
 20
-1.308992
  0
VERTEX
  8
LAYER_1
 62
     7
  6
CONTINUOUS
 10
-0.505291
 20
-1.308992
  0
SEQEND
  8
0
  0
POLYLINE
  8
LAYER_1
 62
     7
  6
CONTINUOUS
 66
     1
 40
0.003000
 41
0.003000
  0
VERTEX
  8
LAYER_1
 62
     7
  6
CONTINUOUS
 10
0.110362
 20
-1.282260
  0
VERTEX
  8
LAYER_1
 62
     7
  6
CONTINUOUS
 10
0.128637
 20
-1.273016
  0
VERTEX
  8
LAYER_1
 62
     7
  6
CONTINUOUS
 10
0.142467
 20
-1.280267
  0
VERTEX
  8
LAYER_1
 62
     7
  6
CONTINUOUS
 10
0.146146
 20
-1.299425
  0
VERTEX
  8
LAYER_1
 62
     7
  6
CONTINUOUS
 10
0.127043
 20
-1.435858
  0
VERTEX
  8
LAYER_1
 62
     7
  6
CONTINUOUS
 10
0.142985
 20
-1.465506
  0
VERTEX
  8
LAYER_1
 62
     7
  6
CONTINUOUS
 10
0.181396
 20
-1.468662
  0
VERTEX
  8
LAYER_1
 62
     7
  6
CONTINUOUS
 10
0.209980
 20
-1.446433
  0
VERTEX
  8
LAYER_1
 62
     7
  6
CONTINUOUS
 10
0.213561
 20
-1.434410
  0
VERTEX
  8
LAYER_1
 62
     7
  6
CONTINUOUS
 10
0.215371
 20
-1.422772
  0
VERTEX
  8
LAYER_1
 62
     7
  6
CONTINUOUS
 10
0.216012
 20
-1.410689
  0
VERTEX
  8
LAYER_1
 62
     7
  6
CONTINUOUS
 10
0.205457
 20
-1.410689
  0
VERTEX
  8
LAYER_1
 62
     7
  6
CONTINUOUS
 10
0.202941
 20
-1.431327
  0
VERTEX
  8
LAYER_1
 62
     7
  6
CONTINUOUS
 10
0.193063
 20
-1.442727
  0
VERTEX
  8
LAYER_1
 62
     7
  6
CONTINUOUS
 10
0.177226
 20
-1.443779
  0
VERTEX
  8
LAYER_1
 62
     7
  6
CONTINUOUS
 10
0.170272
 20
-1.432839
  0
VERTEX
  8
LAYER_1
 62
     7
  6
CONTINUOUS
 10
0.190378
 20
-1.288350
  0
VERTEX
  8
LAYER_1
 62
     7
  6
CONTINUOUS
 10
0.189873
 20
-1.276757
  0
VERTEX
  8
LAYER_1
 62
     7
  6
CONTINUOUS
 10
0.185650
 20
-1.265579
  0
VERTEX
  8
LAYER_1
 62
     7
  6
CONTINUOUS
 10
0.178315
 20
-1.256634
  0
VERTEX
  8
LAYER_1
 62
     7
  6
CONTINUOUS
 10
0.157600
 20
-1.245153
  0
VERTEX
  8
LAYER_1
 62
     7
  6
CONTINUOUS
 10
0.136359
 20
-1.244326
  0
VERTEX
  8
LAYER_1
 62
     7
  6
CONTINUOUS
 10
0.114886
 20
-1.253819
  0
VERTEX
  8
LAYER_1
 62
     7
  6
CONTINUOUS
 10
0.102434
 20
-1.263970
  0
VERTEX
  8
LAYER_1
 62
     7
  6
CONTINUOUS
 10
0.091223
 20
-1.276052
  0
VERTEX
  8
LAYER_1
 62
     7
  6
CONTINUOUS
 10
0.080799
 20
-1.289358
  0
VERTEX
  8
LAYER_1
 62
     7
  6
CONTINUOUS
 10
0.080304
 20
-1.276986
  0
VERTEX
  8
LAYER_1
 62
     7
  6
CONTINUOUS
 10
0.076075
 20
-1.264350
  0
VERTEX
  8
LAYER_1
 62
     7
  6
CONTINUOUS
 10
0.068732
 20
-1.254618
  0
VERTEX
  8
LAYER_1
 62
     7
  6
CONTINUOUS
 10
0.049783
 20
-1.243770
  0
VERTEX
  8
LAYER_1
 62
     7
  6
CONTINUOUS
 10
0.031782
 20
-1.244091
  0
VERTEX
  8
LAYER_1
 62
     7
  6
CONTINUOUS
 10
0.011933
 20
-1.254114
  0
VERTEX
  8
LAYER_1
 62
     7
  6
CONTINUOUS
 10
-0.003012
 20
-1.264659
  0
VERTEX
  8
LAYER_1
 62
     7
  6
CONTINUOUS
 10
-0.015086
 20
-1.275247
  0
VERTEX
  8
LAYER_1
 62
     7
  6
CONTINUOUS
 10
-0.027272
 20
-1.288854
  0
VERTEX
  8
LAYER_1
 62
     7
  6
CONTINUOUS
 10
-0.028635
 20
-1.267819
  0
VERTEX
  8
LAYER_1
 62
     7
  6
CONTINUOUS
 10
-0.038402
 20
-1.255186
  0
VERTEX
  8
LAYER_1
 62
     7
  6
CONTINUOUS
 10
-0.054917
 20
-1.248579
  0
VERTEX
  8
LAYER_1
 62
     7
  6
CONTINUOUS
 10
-0.076708
 20
-1.250172
  0
VERTEX
  8
LAYER_1
 62
     7
  6
CONTINUOUS
 10
-0.099880
 20
-1.262336
  0
VERTEX
  8
LAYER_1
 62
     7
  6
CONTINUOUS
 10
-0.113224
 20
-1.284323
  0
VERTEX
  8
LAYER_1
 62
     7
  6
CONTINUOUS
 10
-0.117748
 20
-1.309996
  0
VERTEX
  8
LAYER_1
 62
     7
  6
CONTINUOUS
 10
-0.105685
 20
-1.309996
  0
VERTEX
  8
LAYER_1
 62
     7
  6
CONTINUOUS
 10
-0.103173
 20
-1.288854
  0
VERTEX
  8
LAYER_1
 62
     7
  6
CONTINUOUS
 10
-0.093385
 20
-1.276540
  0
VERTEX
  8
LAYER_1
 62
     7
  6
CONTINUOUS
 10
-0.078060
 20
-1.277091
  0
VERTEX
  8
LAYER_1
 62
     7
  6
CONTINUOUS
 10
-0.071508
 20
-1.289858
  0
VERTEX
  8
LAYER_1
 62
     7
  6
CONTINUOUS
 10
-0.096134
 20
-1.466567
  0
VERTEX
  8
LAYER_1
 62
     7
  6
CONTINUOUS
 10
-0.053409
 20
-1.466063
  0
VERTEX
  8
LAYER_1
 62
     7
  6
CONTINUOUS
 10
-0.031795
 20
-1.319059
  0
VERTEX
  8
LAYER_1
 62
     7
  6
CONTINUOUS
 10
-0.015239
 20
-1.298139
  0
VERTEX
  8
LAYER_1
 62
     7
  6
CONTINUOUS
 10
0.000239
 20
-1.283972
  0
VERTEX
  8
LAYER_1
 62
     7
  6
CONTINUOUS
 10
0.014449
 20
-1.276268
  0
VERTEX
  8
LAYER_1
 62
     7
  6
CONTINUOUS
 10
0.029374
 20
-1.275207
  0
VERTEX
  8
LAYER_1
 62
     7
  6
CONTINUOUS
 10
0.036501
 20
-1.283298
  0
VERTEX
  8
LAYER_1
 62
     7
  6
CONTINUOUS
 10
0.037067
 20
-1.297917
  0
VERTEX
  8
LAYER_1
 62
     7
  6
CONTINUOUS
 10
0.014449
 20
-1.465059
  0
VERTEX
  8
LAYER_1
 62
     7
  6
CONTINUOUS
 10
0.056669
 20
-1.465059
  0
VERTEX
  8
LAYER_1
 62
     7
  6
CONTINUOUS
 10
0.076437
 20
-1.318646
  0
VERTEX
  8
LAYER_1
 62
     7
  6
CONTINUOUS
 10
0.110362
 20
-1.282260
  0
SEQEND
  8
0
  0
POLYLINE
  8
LAYER_1
 62
     7
  6
CONTINUOUS
 66
     1
 40
0.003000
 41
0.003000
  0
VERTEX
  8
LAYER_1
 62
     7
  6
CONTINUOUS
 10
0.523130
 20
-1.283819
  0
VERTEX
  8
LAYER_1
 62
     7
  6
CONTINUOUS
 10
0.513903
 20
-1.266863
  0
VERTEX
  8
LAYER_1
 62
     7
  6
CONTINUOUS
 10
0.498104
 20
-1.250350
  0
VERTEX
  8
LAYER_1
 62
     7
  6
CONTINUOUS
 10
0.471354
 20
-1.242535
  0
VERTEX
  8
LAYER_1
 62
     7
  6
CONTINUOUS
 10
0.421212
 20
-1.264915
  0
VERTEX
  8
LAYER_1
 62
     7
  6
CONTINUOUS
 10
0.386662
 20
-1.318282
  0
VERTEX
  8
LAYER_1
 62
     7
  6
CONTINUOUS
 10
0.374850
 20
-1.378465
  0
VERTEX
  8
LAYER_1
 62
     7
  6
CONTINUOUS
 10
0.383573
 20
-1.427076
  0
VERTEX
  8
LAYER_1
 62
     7
  6
CONTINUOUS
 10
0.404740
 20
-1.459392
  0
VERTEX
  8
LAYER_1
 62
     7
  6
CONTINUOUS
 10
0.436673
 20
-1.472106
  0
VERTEX
  8
LAYER_1
 62
     7
  6
CONTINUOUS
 10
0.464550
 20
-1.466021
  0
VERTEX
  8
LAYER_1
 62
     7
  6
CONTINUOUS
 10
0.485391
 20
-1.449573
  0
VERTEX
  8
LAYER_1
 62
     7
  6
CONTINUOUS
 10
0.503528
 20
-1.430319
  0
VERTEX
  8
LAYER_1
 62
     7
  6
CONTINUOUS
 10
0.505410
 20
-1.444838
  0
VERTEX
  8
LAYER_1
 62
     7
  6
CONTINUOUS
 10
0.515859
 20
-1.464283
  0
VERTEX
  8
LAYER_1
 62
     7
  6
CONTINUOUS
 10
0.539217
 20
-1.471098
  0
VERTEX
  8
LAYER_1
 62
     7
  6
CONTINUOUS
 10
0.573620
 20
-1.456898
  0
VERTEX
  8
LAYER_1
 62
     7
  6
CONTINUOUS
 10
0.586884
 20
-1.434524
  0
VERTEX
  8
LAYER_1
 62
     7
  6
CONTINUOUS
 10
0.590988
 20
-1.409173
  0
VERTEX
  8
LAYER_1
 62
     7
  6
CONTINUOUS
 10
0.579929
 20
-1.409173
  0
VERTEX
  8
LAYER_1
 62
     7
  6
CONTINUOUS
 10
0.579816
 20
-1.417173
  0
VERTEX
  8
LAYER_1
 62
     7
  6
CONTINUOUS
 10
0.579366
 20
-1.424970
  0
VERTEX
  8
LAYER_1
 62
     7
  6
CONTINUOUS
 10
0.577917
 20
-1.431831
  0
VERTEX
  8
LAYER_1
 62
     7
  6
CONTINUOUS
 10
0.566304
 20
-1.442882
  0
VERTEX
  8
LAYER_1
 62
     7
  6
CONTINUOUS
 10
0.551701
 20
-1.442505
  0
VERTEX
  8
LAYER_1
 62
     7
  6
CONTINUOUS
 10
0.545248
 20
-1.434850
  0
VERTEX
  8
LAYER_1
 62
     7
  6
CONTINUOUS
 10
0.568870
 20
-1.259150
  0
VERTEX
  8
LAYER_1
 62
     7
  6
CONTINUOUS
 10
0.566584
 20
-1.250540
  0
VERTEX
  8
LAYER_1
 62
     7
  6
CONTINUOUS
 10
0.559364
 20
-1.243971
  0
VERTEX
  8
LAYER_1
 62
     7
  6
CONTINUOUS
 10
0.550272
 20
-1.241531
  0
VERTEX
  8
LAYER_1
 62
     7
  6
CONTINUOUS
 10
0.540000
 20
-1.244433
  0
VERTEX
  8
LAYER_1
 62
     7
  6
CONTINUOUS
 10
0.531204
 20
-1.251347
  0
VERTEX
  8
LAYER_1
 62
     7
  6
CONTINUOUS
 10
0.526650
 20
-1.260661
  0
VERTEX
  8
LAYER_1
 62
     7
  6
CONTINUOUS
 10
0.523130
 20
-1.283819
  0
SEQEND
  8
0
  0
POLYLINE
  8
LAYER_1
 62
     7
  6
CONTINUOUS
 66
     1
 40
0.003000
 41
0.003000
  0
VERTEX
  8
LAYER_1
 62
     7
  6
CONTINUOUS
 10
0.479398
 20
-1.271232
  0
VERTEX
  8
LAYER_1
 62
     7
  6
CONTINUOUS
 10
0.500425
 20
-1.281348
  0
VERTEX
  8
LAYER_1
 62
     7
  6
CONTINUOUS
 10
0.512487
 20
-1.309456
  0
VERTEX
  8
LAYER_1
 62
     7
  6
CONTINUOUS
 10
0.515087
 20
-1.339701
  0
VERTEX
  8
LAYER_1
 62
     7
  6
CONTINUOUS
 10
0.507294
 20
-1.382034
  0
VERTEX
  8
LAYER_1
 62
     7
  6
CONTINUOUS
 10
0.488953
 20
-1.421087
  0
VERTEX
  8
LAYER_1
 62
     7
  6
CONTINUOUS
 10
0.457283
 20
-1.441898
  0
VERTEX
  8
LAYER_1
 62
     7
  6
CONTINUOUS
 10
0.437187
 20
-1.433378
  0
VERTEX
  8
LAYER_1
 62
     7
  6
CONTINUOUS
 10
0.425630
 20
-1.407692
  0
VERTEX
  8
LAYER_1
 62
     7
  6
CONTINUOUS
 10
0.423606
 20
-1.376957
  0
VERTEX
  8
LAYER_1
 62
     7
  6
CONTINUOUS
 10
0.431446
 20
-1.330914
  0
VERTEX
  8
LAYER_1
 62
     7
  6
CONTINUOUS
 10
0.448516
 20
-1.291482
  0
VERTEX
  8
LAYER_1
 62
     7
  6
CONTINUOUS
 10
0.479398
 20
-1.271232
  0
SEQEND
  8
0
  0
POLYLINE
  8
LAYER_1
 62
     7
  6
CONTINUOUS
 66
     1
 40
0.003000
 41
0.003000
  0
VERTEX
  8
LAYER_1
 62
     7
  6
CONTINUOUS
 10
0.741531
 20
-1.309839
  0
VERTEX
  8
LAYER_1
 62
     7
  6
CONTINUOUS
 10
0.746055
 20
-1.284165
  0
VERTEX
  8
LAYER_1
 62
     7
  6
CONTINUOUS
 10
0.759630
 20
-1.261477
  0
VERTEX
  8
LAYER_1
 62
     7
  6
CONTINUOUS
 10
0.783031
 20
-1.248610
  0
VERTEX
  8
LAYER_1
 62
     7
  6
CONTINUOUS
 10
0.804362
 20
-1.248417
  0
VERTEX
  8
LAYER_1
 62
     7
  6
CONTINUOUS
 10
0.823139
 20
-1.261311
  0
VERTEX
  8
LAYER_1
 62
     7
  6
CONTINUOUS
 10
0.831904
 20
-1.279352
  0
VERTEX
  8
LAYER_1
 62
     7
  6
CONTINUOUS
 10
0.829996
 20
-1.302287
  0
VERTEX
  8
LAYER_1
 62
     7
  6
CONTINUOUS
 10
0.842704
 20
-1.285156
  0
VERTEX
  8
LAYER_1
 62
     7
  6
CONTINUOUS
 10
0.855746
 20
-1.268025
  0
VERTEX
  8
LAYER_1
 62
     7
  6
CONTINUOUS
 10
0.871213
 20
-1.253957
  0
VERTEX
  8
LAYER_1
 62
     7
  6
CONTINUOUS
 10
0.894190
 20
-1.244452
  0
VERTEX
  8
LAYER_1
 62
     7
  6
CONTINUOUS
 10
0.917999
 20
-1.245100
  0
VERTEX
  8
LAYER_1
 62
     7
  6
CONTINUOUS
 10
0.940079
 20
-1.256472
  0
VERTEX
  8
LAYER_1
 62
     7
  6
CONTINUOUS
 10
0.947417
 20
-1.265421
  0
VERTEX
  8
LAYER_1
 62
     7
  6
CONTINUOUS
 10
0.951638
 20
-1.276597
  0
VERTEX
  8
LAYER_1
 62
     7
  6
CONTINUOUS
 10
0.952142
 20
-1.288189
  0
VERTEX
  8
LAYER_1
 62
     7
  6
CONTINUOUS
 10
0.932035
 20
-1.432677
  0
VERTEX
  8
LAYER_1
 62
     7
  6
CONTINUOUS
 10
0.938991
 20
-1.443619
  0
VERTEX
  8
LAYER_1
 62
     7
  6
CONTINUOUS
 10
0.954829
 20
-1.442567
  0
VERTEX
  8
LAYER_1
 62
     7
  6
CONTINUOUS
 10
0.964709
 20
-1.431165
  0
VERTEX
  8
LAYER_1
 62
     7
  6
CONTINUOUS
 10
0.967220
 20
-1.410528
  0
VERTEX
  8
LAYER_1
 62
     7
  6
CONTINUOUS
 10
0.977776
 20
-1.410528
  0
VERTEX
  8
LAYER_1
 62
     7
  6
CONTINUOUS
 10
0.977137
 20
-1.422611
  0
VERTEX
  8
LAYER_1
 62
     7
  6
CONTINUOUS
 10
0.975325
 20
-1.434248
  0
VERTEX
  8
LAYER_1
 62
     7
  6
CONTINUOUS
 10
0.971744
 20
-1.446268
  0
VERTEX
  8
LAYER_1
 62
     7
  6
CONTINUOUS
 10
0.943160
 20
-1.468501
  0
VERTEX
  8
LAYER_1
 62
     7
  6
CONTINUOUS
 10
0.904748
 20
-1.465346
  0
VERTEX
  8
LAYER_1
 62
     7
  6
CONTINUOUS
 10
0.888807
 20
-1.435697
  0
VERTEX
  8
LAYER_1
 62
     7
  6
CONTINUOUS
 10
0.907909
 20
-1.299264
  0
VERTEX
  8
LAYER_1
 62
     7
  6
CONTINUOUS
 10
0.905684
 20
-1.284782
  0
VERTEX
  8
LAYER_1
 62
     7
  6
CONTINUOUS
 10
0.895394
 20
-1.276930
  0
VERTEX
  8
LAYER_1
 62
     7
  6
CONTINUOUS
 10
0.878756
 20
-1.278118
  0
VERTEX
  8
LAYER_1
 62
     7
  6
CONTINUOUS
 10
0.862722
 20
-1.288828
  0
VERTEX
  8
LAYER_1
 62
     7
  6
CONTINUOUS
 10
0.843855
 20
-1.308570
  0
VERTEX
  8
LAYER_1
 62
     7
  6
CONTINUOUS
 10
0.825472
 20
-1.332492
  0
VERTEX
  8
LAYER_1
 62
     7
  6
CONTINUOUS
 10
0.805870
 20
-1.465902
  0
VERTEX
  8
LAYER_1
 62
     7
  6
CONTINUOUS
 10
0.763146
 20
-1.466409
  0
VERTEX
  8
LAYER_1
 62
     7
  6
CONTINUOUS
 10
0.787776
 20
-1.289701
  0
VERTEX
  8
LAYER_1
 62
     7
  6
CONTINUOUS
 10
0.781220
 20
-1.276933
  0
VERTEX
  8
LAYER_1
 62
     7
  6
CONTINUOUS
 10
0.765895
 20
-1.276379
  0
VERTEX
  8
LAYER_1
 62
     7
  6
CONTINUOUS
 10
0.756106
 20
-1.288693
  0
VERTEX
  8
LAYER_1
 62
     7
  6
CONTINUOUS
 10
0.753594
 20
-1.309839
  0
VERTEX
  8
LAYER_1
 62
     7
  6
CONTINUOUS
 10
0.741531
 20
-1.309839
  0
SEQEND
  8
0
  0
POLYLINE
  8
LAYER_1
 62
     7
  6
CONTINUOUS
 66
     1
 40
0.003000
 41
0.003000
  0
VERTEX
  8
LAYER_1
 62
     7
  6
CONTINUOUS
 10
1.421941
 20
-1.557949
  0
VERTEX
  8
LAYER_1
 62
     7
  6
CONTINUOUS
 10
1.483029
 20
-1.549700
  0
VERTEX
  8
LAYER_1
 62
     7
  6
CONTINUOUS
 10
1.537996
 20
-1.526436
  0
VERTEX
  8
LAYER_1
 62
     7
  6
CONTINUOUS
 10
1.584619
 20
-1.490381
  0
VERTEX
  8
LAYER_1
 62
     7
  6
CONTINUOUS
 10
1.620673
 20
-1.443758
  0
VERTEX
  8
LAYER_1
 62
     7
  6
CONTINUOUS
 10
1.643937
 20
-1.388791
  0
VERTEX
  8
LAYER_1
 62
     7
  6
CONTINUOUS
 10
1.652185
 20
-1.327705
  0
VERTEX
  8
LAYER_1
 62
     7
  6
CONTINUOUS
 10
1.643937
 20
-1.266618
  0
VERTEX
  8
LAYER_1
 62
     7
  6
CONTINUOUS
 10
1.620673
 20
-1.211650
  0
VERTEX
  8
LAYER_1
 62
     7
  6
CONTINUOUS
 10
1.584619
 20
-1.165027
  0
VERTEX
  8
LAYER_1
 62
     7
  6
CONTINUOUS
 10
1.537996
 20
-1.128970
  0
VERTEX
  8
LAYER_1
 62
     7
  6
CONTINUOUS
 10
1.483029
 20
-1.105706
  0
VERTEX
  8
LAYER_1
 62
     7
  6
CONTINUOUS
 10
1.421941
 20
-1.097457
  0
VERTEX
  8
LAYER_1
 62
     7
  6
CONTINUOUS
 10
1.360853
 20
-1.105706
  0
VERTEX
  8
LAYER_1
 62
     7
  6
CONTINUOUS
 10
1.305886
 20
-1.128970
  0
VERTEX
  8
LAYER_1
 62
     7
  6
CONTINUOUS
 10
1.259263
 20
-1.165027
  0
VERTEX
  8
LAYER_1
 62
     7
  6
CONTINUOUS
 10
1.223209
 20
-1.211650
  0
VERTEX
  8
LAYER_1
 62
     7
  6
CONTINUOUS
 10
1.199945
 20
-1.266618
  0
VERTEX
  8
LAYER_1
 62
     7
  6
CONTINUOUS
 10
1.191697
 20
-1.327705
  0
VERTEX
  8
LAYER_1
 62
     7
  6
CONTINUOUS
 10
1.199945
 20
-1.388791
  0
VERTEX
  8
LAYER_1
 62
     7
  6
CONTINUOUS
 10
1.223209
 20
-1.443758
  0
VERTEX
  8
LAYER_1
 62
     7
  6
CONTINUOUS
 10
1.259263
 20
-1.490381
  0
VERTEX
  8
LAYER_1
 62
     7
  6
CONTINUOUS
 10
1.305886
 20
-1.526436
  0
VERTEX
  8
LAYER_1
 62
     7
  6
CONTINUOUS
 10
1.360853
 20
-1.549700
  0
VERTEX
  8
LAYER_1
 62
     7
  6
CONTINUOUS
 10
1.421941
 20
-1.557949
  0
SEQEND
  8
0
  0
POLYLINE
  8
LAYER_1
 62
     7
  6
CONTINUOUS
 66
     1
 40
0.003000
 41
0.003000
  0
VERTEX
  8
LAYER_1
 62
     7
  6
CONTINUOUS
 10
1.415472
 20
-1.195764
  0
VERTEX
  8
LAYER_1
 62
     7
  6
CONTINUOUS
 10
1.435581
 20
-1.181852
  0
VERTEX
  8
LAYER_1
 62
     7
  6
CONTINUOUS
 10
1.459404
 20
-1.181633
  0
VERTEX
  8
LAYER_1
 62
     7
  6
CONTINUOUS
 10
1.477563
 20
-1.193177
  0
VERTEX
  8
LAYER_1
 62
     7
  6
CONTINUOUS
 10
1.482472
 20
-1.201846
  0
VERTEX
  8
LAYER_1
 62
     7
  6
CONTINUOUS
 10
1.484919
 20
-1.211582
  0
VERTEX
  8
LAYER_1
 62
     7
  6
CONTINUOUS
 10
1.482736
 20
-1.220343
  0
VERTEX
  8
LAYER_1
 62
     7
  6
CONTINUOUS
 10
1.317165
 20
-1.460933
  0
VERTEX
  8
LAYER_1
 62
     7
  6
CONTINUOUS
 10
1.297567
 20
-1.473902
  0
VERTEX
  8
LAYER_1
 62
     7
  6
CONTINUOUS
 10
1.273172
 20
-1.472953
  0
VERTEX
  8
LAYER_1
 62
     7
  6
CONTINUOUS
 10
1.252492
 20
-1.460933
  0
VERTEX
  8
LAYER_1
 62
     7
  6
CONTINUOUS
 10
1.247863
 20
-1.452640
  0
VERTEX
  8
LAYER_1
 62
     7
  6
CONTINUOUS
 10
1.246864
 20
-1.442676
  0
VERTEX
  8
LAYER_1
 62
     7
  6
CONTINUOUS
 10
1.249902
 20
-1.433772
  0
VERTEX
  8
LAYER_1
 62
     7
  6
CONTINUOUS
 10
1.415472
 20
-1.195764
  0
SEQEND
  8
0
  0
POLYLINE
  8
LAYER_1
 62
     7
  6
CONTINUOUS
 66
     1
 40
0.003000
 41
0.003000
  0
VERTEX
  8
LAYER_1
 62
     7
  6
CONTINUOUS
 10
1.530594
 20
-1.217756
  0
VERTEX
  8
LAYER_1
 62
     7
  6
CONTINUOUS
 10
1.550705
 20
-1.203842
  0
VERTEX
  8
LAYER_1
 62
     7
  6
CONTINUOUS
 10
1.574527
 20
-1.203624
  0
VERTEX
  8
LAYER_1
 62
     7
  6
CONTINUOUS
 10
1.592685
 20
-1.215169
  0
VERTEX
  8
LAYER_1
 62
     7
  6
CONTINUOUS
 10
1.597594
 20
-1.223838
  0
VERTEX
  8
LAYER_1
 62
     7
  6
CONTINUOUS
 10
1.600041
 20
-1.233573
  0
VERTEX
  8
LAYER_1
 62
     7
  6
CONTINUOUS
 10
1.597858
 20
-1.242331
  0
VERTEX
  8
LAYER_1
 62
     7
  6
CONTINUOUS
 10
1.432287
 20
-1.482925
  0
VERTEX
  8
LAYER_1
 62
     7
  6
CONTINUOUS
 10
1.412689
 20
-1.495892
  0
VERTEX
  8
LAYER_1
 62
     7
  6
CONTINUOUS
 10
1.388294
 20
-1.494943
  0
VERTEX
  8
LAYER_1
 62
     7
  6
CONTINUOUS
 10
1.367614
 20
-1.482925
  0
VERTEX
  8
LAYER_1
 62
     7
  6
CONTINUOUS
 10
1.362986
 20
-1.474632
  0
VERTEX
  8
LAYER_1
 62
     7
  6
CONTINUOUS
 10
1.361987
 20
-1.464667
  0
VERTEX
  8
LAYER_1
 62
     7
  6
CONTINUOUS
 10
1.365028
 20
-1.455760
  0
VERTEX
  8
LAYER_1
 62
     7
  6
CONTINUOUS
 10
1.530594
 20
-1.217756
  0
SEQEND
  8
0
  0
TEXT
  8
LAYER_1
 62
     7
 10
-0.754984
 20
-1.945307
 40
0.199303
  1
www.kinman.com
 41
1.000000
  7
SN0
 71
     0
 72
     5
 11
0.555129
 21
-1.945307
  0
TEXT
  8
LAYER_1
 62
     7
 10
-0.166228
 20
-3.841260
 40
0.281090
  1
7
 41
1.000000
  7
SN0
 71
     0
 72
     5
 11
-0.040852
 21
-3.841260
  0
TEXT
  8
LAYER_1
 62
    39
 10
0.128654
 20
-3.848874
 40
0.185097
  1
4
 41
1.000000
  7
SN0
 71
     0
 72
     5
 11
0.225386
 21
-3.848874
  0
TEXT
  8
LAYER_1
 62
    39
 10
0.082854
 20
-3.843661
 40
0.281090
  1
/
 41
1.000000
  7
SN0
 71
     0
 72
     5
 11
0.194144
 21
-3.843661
  0
TEXT
  8
LAYER_1
 62
    39
 10
0.019433
 20
-3.758469
 40
0.185097
  1
1
 41
1.000000
  7
SN0
 71
     0
 72
     5
 11
0.072965
 21
-3.758469
  0
TEXT
  8
LAYER_1
 62
     7
 10
-0.928898
 20
0.709835
 40
0.281090
  1
11
 50
212.983820
 41
1.000000
  7
SN0
 71
     0
 72
     5
 11
-1.065186
 21
0.621388
  0
TEXT
  8
LAYER_1
 62
    39
 10
-2.121362
 20
-2.256921
 40
0.281090
  1
/
 50
289.051478
 41
1.000000
  7
SN0
 71
     0
 72
     5
 11
-2.085039
 21
-2.362116
  0
TEXT
  8
LAYER_1
 62
    39
 10
-2.103886
 20
-2.317575
 40
0.185097
  1
2
 50
289.051478
 41
1.000000
  7
SN0
 71
     0
 72
     5
 11
-2.076912
 21
-2.395694
  0
TEXT
  8
LAYER_1
 62
    39
 10
-2.059913
 20
-2.174425
 40
0.185097
  1
1
 50
289.051478
 41
1.000000
  7
SN0
 71
     0
 72
     5
 11
-2.042442
 21
-2.225025
  0
TEXT
  8
LAYER_1
 62
     7
 10
-2.178362
 20
-2.022783
 40
0.281090
  1
9
 50
287.598764
 41
1.000000
  7
SN0
 71
     0
 72
     5
 11
-2.140175
 21
-2.143189
  0
ENDSEC
  0
EOF
